  0
SECTION
  2
HEADER
  9
$ACADVER
  1
AC1015
  9
$ACADMAINTVER
 70
     6
  9
$DWGCODEPAGE
  3
ANSI_1254
  9
$INSBASE
 10
0.0
 20
0.0
 30
0.0
  9
$EXTMIN
 10
0.0
 20
0.0
 30
0.0
  9
$EXTMAX
 10
279.4
 20
215.9
 30
0.0
  9
$LIMMIN
 10
0.0
 20
0.0
  9
$LIMMAX
 10
279.4
 20
215.9
  9
$ORTHOMODE
 70
     0
  9
$REGENMODE
 70
     1
  9
$FILLMODE
 70
     1
  9
$QTEXTMODE
 70
     0
  9
$MIRRTEXT
 70
     1
  9
$LTSCALE
 40
1.0
  9
$ATTMODE
 70
     1
  9
$TEXTSIZE
 40
3.5
  9
$TRACEWID
 40
1.0
  9
$TEXTSTYLE
  7
Standard
  9
$CLAYER
  8
0
  9
$CELTYPE
  6
ByLayer
  9
$CECOLOR
 62
   256
  9
$CELTSCALE
 40
1.0
  9
$DISPSILH
 70
     0
  9
$DIMSCALE
 40
1.0
  9
$DIMASZ
 40
3.5
  9
$DIMEXO
 40
1.0
  9
$DIMDLI
 40
3.75
  9
$DIMRND
 40
0.0
  9
$DIMDLE
 40
0.0
  9
$DIMEXE
 40
1.0
  9
$DIMTP
 40
0.0
  9
$DIMTM
 40
0.0
  9
$DIMTXT
 40
3.5
  9
$DIMCEN
 40
2.5
  9
$DIMTSZ
 40
0.0
  9
$DIMTOL
 70
     0
  9
$DIMLIM
 70
     0
  9
$DIMTIH
 70
     1
  9
$DIMTOH
 70
     1
  9
$DIMSE1
 70
     0
  9
$DIMSE2
 70
     0
  9
$DIMTAD
 70
     1
  9
$DIMZIN
 70
     0
  9
$DIMBLK
  1

  9
$DIMASO
 70
     1
  9
$DIMSHO
 70
     1
  9
$DIMPOST
  1

  9
$DIMAPOST
  1

  9
$DIMALT
 70
     0
  9
$DIMALTD
 70
     3
  9
$DIMALTF
 40
0.0393700787
  9
$DIMLFAC
 40
1.0
  9
$DIMTOFL
 70
     1
  9
$DIMTVP
 40
0.0
  9
$DIMTIX
 70
     0
  9
$DIMSOXD
 70
     0
  9
$DIMSAH
 70
     0
  9
$DIMBLK1
  1

  9
$DIMBLK2
  1

  9
$DIMSTYLE
  2
ISO-25
  9
$DIMCLRD
 70
     0
  9
$DIMCLRE
 70
     0
  9
$DIMCLRT
 70
     0
  9
$DIMTFAC
 40
1.0
  9
$DIMGAP
 40
1.524
  9
$DIMJUST
 70
     0
  9
$DIMSD1
 70
     0
  9
$DIMSD2
 70
     0
  9
$DIMTOLJ
 70
     0
  9
$DIMTZIN
 70
     0
  9
$DIMALTZ
 70
     0
  9
$DIMALTTZ
 70
     0
  9
$DIMUPT
 70
     0
  9
$DIMDEC
 70
     2
  9
$DIMTDEC
 70
     2
  9
$DIMALTU
 70
     2
  9
$DIMALTTD
 70
     3
  9
$DIMTXSTY
  7
Standard
  9
$DIMAUNIT
 70
     0
  9
$DIMADEC
 70
     2
  9
$DIMALTRND
 40
0.0
  9
$DIMAZIN
 70
     0
  9
$DIMDSEP
 70
    44
  9
$DIMATFIT
 70
     3
  9
$DIMFRAC
 70
     0
  9
$DIMLDRBLK
  1

  9
$DIMLUNIT
 70
     2
  9
$DIMLWD
 70
    -2
  9
$DIMLWE
 70
    -2
  9
$DIMTMOVE
 70
     0
  9
$LUNITS
 70
     2
  9
$LUPREC
 70
     2
  9
$SKETCHINC
 40
1.0
  9
$FILLETRAD
 40
10.0
  9
$AUNITS
 70
     0
  9
$AUPREC
 70
     2
  9
$MENU
  1
.
  9
$ELEVATION
 40
0.0
  9
$PELEVATION
 40
0.0
  9
$THICKNESS
 40
0.0
  9
$LIMCHECK
 70
     0
  9
$CHAMFERA
 40
0.0
  9
$CHAMFERB
 40
0.0
  9
$CHAMFERC
 40
0.0
  9
$CHAMFERD
 40
0.0
  9
$SKPOLY
 70
     0
  9
$TDCREATE
 40
2458985.718186887
  9
$TDUCREATE
 40
2458985.593186887
  9
$TDUPDATE
 40
2458985.718187141
  9
$TDUUPDATE
 40
2458985.593187141
  9
$TDINDWG
 40
0.0000000116
  9
$TDUSRTIMER
 40
0.0000000116
  9
$USRTIMER
 70
     1
  9
$ANGBASE
 50
0.0
  9
$ANGDIR
 70
     0
  9
$PDMODE
 70
     0
  9
$PDSIZE
 40
-1.0
  9
$PLINEWID
 40
0.0
  9
$SPLFRAME
 70
     0
  9
$SPLINETYPE
 70
     6
  9
$SPLINESEGS
 70
     8
  9
$HANDSEED
  5
E1
  9
$SURFTAB1
 70
     6
  9
$SURFTAB2
 70
     6
  9
$SURFTYPE
 70
     6
  9
$SURFU
 70
     6
  9
$SURFV
 70
     6
  9
$UCSBASE
  2

  9
$UCSNAME
  2

  9
$UCSORG
 10
0.0
 20
0.0
 30
0.0
  9
$UCSXDIR
 10
1.0
 20
0.0
 30
0.0
  9
$UCSYDIR
 10
0.0
 20
1.0
 30
0.0
  9
$UCSORTHOREF
  2

  9
$UCSORTHOVIEW
 70
     0
  9
$UCSORGTOP
 10
0.0
 20
0.0
 30
0.0
  9
$UCSORGBOTTOM
 10
0.0
 20
0.0
 30
0.0
  9
$UCSORGLEFT
 10
0.0
 20
0.0
 30
0.0
  9
$UCSORGRIGHT
 10
0.0
 20
0.0
 30
0.0
  9
$UCSORGFRONT
 10
0.0
 20
0.0
 30
0.0
  9
$UCSORGBACK
 10
0.0
 20
0.0
 30
0.0
  9
$PUCSBASE
  2

  9
$PUCSNAME
  2

  9
$PUCSORG
 10
0.0
 20
0.0
 30
0.0
  9
$PUCSXDIR
 10
1.0
 20
0.0
 30
0.0
  9
$PUCSYDIR
 10
0.0
 20
1.0
 30
0.0
  9
$PUCSORTHOREF
  2

  9
$PUCSORTHOVIEW
 70
     0
  9
$PUCSORGTOP
 10
0.0
 20
0.0
 30
0.0
  9
$PUCSORGBOTTOM
 10
0.0
 20
0.0
 30
0.0
  9
$PUCSORGLEFT
 10
0.0
 20
0.0
 30
0.0
  9
$PUCSORGRIGHT
 10
0.0
 20
0.0
 30
0.0
  9
$PUCSORGFRONT
 10
0.0
 20
0.0
 30
0.0
  9
$PUCSORGBACK
 10
0.0
 20
0.0
 30
0.0
  9
$USERI1
 70
     0
  9
$USERI2
 70
     0
  9
$USERI3
 70
     0
  9
$USERI4
 70
     0
  9
$USERI5
 70
     0
  9
$USERR1
 40
0.0
  9
$USERR2
 40
0.0
  9
$USERR3
 40
0.0
  9
$USERR4
 40
0.0
  9
$USERR5
 40
0.0
  9
$WORLDVIEW
 70
     1
  9
$SHADEDGE
 70
     3
  9
$SHADEDIF
 70
    70
  9
$TILEMODE
 70
     1
  9
$MAXACTVP
 70
    64
  9
$PINSBASE
 10
0.0
 20
0.0
 30
0.0
  9
$PLIMCHECK
 70
     0
  9
$PEXTMIN
 10
1.0000000000E+20
 20
1.0000000000E+20
 30
1.0000000000E+20
  9
$PEXTMAX
 10
-1.0000000000E+20
 20
-1.0000000000E+20
 30
-1.0000000000E+20
  9
$PLIMMIN
 10
0.0
 20
0.0
  9
$PLIMMAX
 10
420.0
 20
297.0
  9
$UNITMODE
 70
     0
  9
$VISRETAIN
 70
     1
  9
$PLINEGEN
 70
     0
  9
$PSLTSCALE
 70
     1
  9
$TREEDEPTH
 70
  3020
  9
$CMLSTYLE
  2
Standard
  9
$CMLJUST
 70
     0
  9
$CMLSCALE
 40
20.0
  9
$PROXYGRAPHICS
 70
     1
  9
$MEASUREMENT
 70
     1
  9
$CELWEIGHT
370
    -1
  9
$ENDCAPS
280
     0
  9
$JOINSTYLE
280
     0
  9
$LWDISPLAY
290
     1
  9
$INSUNITS
 70
     4
  9
$HYPERLINKBASE
  1

  9
$STYLESHEET
  1

  9
$XEDIT
290
     1
  9
$CEPSNTYPE
380
     0
  9
$PSTYLEMODE
290
     1
  9
$FINGERPRINTGUID
  2
{19f4768d-6c29-4404-8629-0be0df8b7c7c}
  9
$VERSIONGUID
  2
{FAEB1C32-E019-11D5-929B-00C0DF256EC4}
  9
$EXTNAMES
290
     1
  9
$PSVPSCALE
 40
0.0
  9
$OLESTARTUP
290
     0
  0
ENDSEC
  0
SECTION
  2
CLASSES
  0
CLASS
  1
ACDBDICTIONARYWDFLT
  2
AcDbDictionaryWithDefault
  3
ObjectDBX Classes
 90
        0
280
     0
281
     0
  0
CLASS
  1
VISUALSTYLE
  2
AcDbVisualStyle
  3
ObjectDBX Classes
 90
     4095
280
     0
281
     0
  0
CLASS
  1
MATERIAL
  2
AcDbMaterial
  3
ObjectDBX Classes
 90
     1153
280
     0
281
     0
  0
CLASS
  1
SCALE
  2
AcDbScale
  3
ObjectDBX Classes
 90
     1153
280
     0
281
     0
  0
CLASS
  1
TABLESTYLE
  2
AcDbTableStyle
  3
ObjectDBX Classes
 90
     4095
280
     0
281
     0
  0
CLASS
  1
MLEADERSTYLE
  2
AcDbMLeaderStyle
  3
ACDB_MLEADERSTYLE_CLASS
 90
     4095
280
     0
281
     0
  0
CLASS
  1
SUN
  2
AcDbSun
  3
SCENEOE
 90
     1153
280
     0
281
     0
  0
CLASS
  1
ACDBPLACEHOLDER
  2
AcDbPlaceHolder
  3
ObjectDBX Classes
 90
        0
280
     0
281
     0
  0
CLASS
  1
LAYOUT
  2
AcDbLayout
  3
ObjectDBX Classes
 90
        0
280
     0
281
     0
  0
ENDSEC
  0
SECTION
  2
TABLES
  0
TABLE
  2
VPORT
  5
8
330
0
100
AcDbSymbolTable
 70
     1
  0
VPORT
  5
29
330
8
100
AcDbSymbolTableRecord
100
AcDbViewportTableRecord
  2
*Active
 70
     0
 10
0.0
 20
0.0
 11
1.0
 21
1.0
 12
139.7
 22
107.95
 13
0.0
 23
0.0
 14
10.0
 24
10.0
 15
10.0
 25
10.0
 16
0.0
 26
0.0
 36
1.0
 17
0.0
 27
0.0
 37
0.0
 40
215.9
 41
1.2941176471
 42
50.0
 43
0.0
 44
0.0
 50
0.0
 51
0.0
 71
     0
 72
  2000
 73
     1
 74
     3
 75
     0
 76
     0
 77
     0
 78
     0
281
     0
 65
     1
110
0.0
120
0.0
130
0.0
111
1.0
121
0.0
131
0.0
112
0.0
122
1.0
132
0.0
 79
     0
146
0.0
  0
ENDTAB
  0
TABLE
  2
LTYPE
  5
5
330
0
100
AcDbSymbolTable
 70
     6
  0
LTYPE
  5
14
330
5
100
AcDbSymbolTableRecord
100
AcDbLinetypeTableRecord
  2
ByBlock
 70
     0
  3

 72
    65
 73
     0
 40
0.0
  0
LTYPE
  5
15
330
5
100
AcDbSymbolTableRecord
100
AcDbLinetypeTableRecord
  2
ByLayer
 70
     0
  3

 72
    65
 73
     0
 40
0.0
  0
LTYPE
  5
16
330
5
100
AcDbSymbolTableRecord
100
AcDbLinetypeTableRecord
  2
Continuous
 70
     0
  3
Solid line
 72
    65
 73
     0
 40
0.0
  0
LTYPE
  5
6E
330
5
100
AcDbSymbolTableRecord
100
AcDbLinetypeTableRecord
  2
HIDDEN
 70
     0
  3
Hidden __ __ __ __ __ __ __ __ __ __ __ __ __ __
 72
    65
 73
     2
 40
1.905
 49
1.27
 74
     0
 49
-0.635
 74
     0
  0
LTYPE
  5
6F
330
5
100
AcDbSymbolTableRecord
100
AcDbLinetypeTableRecord
  2
PHANTOM
 70
     0
  3
Phantom ______  __  __  ______  __  __  ______
 72
    65
 73
     6
 40
12.7
 49
6.35
 74
     0
 49
-1.27
 74
     0
 49
1.27
 74
     0
 49
-1.27
 74
     0
 49
1.27
 74
     0
 49
-1.27
 74
     0
  0
LTYPE
  5
70
330
5
100
AcDbSymbolTableRecord
100
AcDbLinetypeTableRecord
  2
CENTER
 70
     0
  3
Center ____ _ ____ _ ____ _ ____ _ ____ _ ____
 72
    65
 73
     4
 40
10.16
 49
6.35
 74
     0
 49
-1.27
 74
     0
 49
1.27
 74
     0
 49
-1.27
 74
     0
  0
LTYPE
  5
71
330
5
100
AcDbSymbolTableRecord
100
AcDbLinetypeTableRecord
  2
CENTERX2
 70
     0
  3
Center (2x) ________  __  ________  __  _____
 72
    65
 73
     4
 40
20.32
 49
12.7
 74
     0
 49
-2.54
 74
     0
 49
2.54
 74
     0
 49
-2.54
 74
     0
  0
LTYPE
  5
72
330
5
100
AcDbSymbolTableRecord
100
AcDbLinetypeTableRecord
  2
DOT2
 70
     0
  3
Dot (.5x) ........................................
 72
    65
 73
     2
 40
0.635
 49
0.0
 74
     0
 49
-0.635
 74
     0
  0
ENDTAB
  0
TABLE
  2
LAYER
  5
2
330
0
100
AcDbSymbolTable
 70
    17
  0
LAYER
  5
10
330
2
100
AcDbSymbolTableRecord
100
AcDbLayerTableRecord
  2
0
 70
     0
 62
     7
  6
Continuous
370
    -3
390
F
  0
LAYER
  5
73
330
2
100
AcDbSymbolTableRecord
100
AcDbLayerTableRecord
  2
FORMAT
 70
     0
 62
     7
  6
Continuous
370
    -3
390
F
  0
LAYER
  5
74
330
2
100
AcDbSymbolTableRecord
100
AcDbLayerTableRecord
  2
YARDIMCI_GEOMETRI
 70
     0
 62
    -6
  6
Continuous
290
     0
370
    -3
390
F
  0
LAYER
  5
75
330
2
100
AcDbSymbolTableRecord
100
AcDbLayerTableRecord
  2
SAYFA_CERCEVESI
 70
     0
 62
     7
  6
Continuous
370
    25
390
F
  0
LAYER
  5
76
330
2
100
AcDbSymbolTableRecord
100
AcDbLayerTableRecord
  2
ANTET
 70
     0
 62
     7
  6
Continuous
370
    -3
390
F
  0
LAYER
  5
77
330
2
100
AcDbSymbolTableRecord
100
AcDbLayerTableRecord
  2
OLCU
 70
     0
 62
   150
  6
Continuous
370
    -3
390
F
  0
LAYER
  5
78
330
2
100
AcDbSymbolTableRecord
100
AcDbLayerTableRecord
  2
METIN
 70
     0
 62
    96
  6
Continuous
370
    -3
390
F
  0
LAYER
  5
79
330
2
100
AcDbSymbolTableRecord
100
AcDbLayerTableRecord
  2
BALON
 70
     0
 62
     5
  6
Continuous
370
    -3
390
F
  0
LAYER
  5
7A
330
2
100
AcDbSymbolTableRecord
100
AcDbLayerTableRecord
  2
VURGU
 70
     0
 62
     7
  6
Continuous
370
    -3
390
F
  0
LAYER
  5
7B
330
2
100
AcDbSymbolTableRecord
100
AcDbLayerTableRecord
  2
SILIK
 70
     0
 62
     7
  6
Continuous
370
    -3
390
F
  0
LAYER
  5
7C
330
2
100
AcDbSymbolTableRecord
100
AcDbLayerTableRecord
  2
MODEL
 70
     0
 62
     7
  6
Continuous
370
    -3
390
F
  0
LAYER
  5
7D
330
2
100
AcDbSymbolTableRecord
100
AcDbLayerTableRecord
  2
DETAYLANDıRMA
 70
     0
 62
   190
  6
Continuous
370
    -3
390
F
  0
LAYER
  5
7E
330
2
100
AcDbSymbolTableRecord
100
AcDbLayerTableRecord
  2
TOLERANS
 70
     0
 62
   230
  6
Continuous
370
    -3
390
F
  0
LAYER
  5
7F
330
2
100
AcDbSymbolTableRecord
100
AcDbLayerTableRecord
  2
MERKEZ_CIZGILERI
 70
     0
 62
    30
  6
Continuous
370
    -3
390
F
  0
LAYER
  5
80
330
2
100
AcDbSymbolTableRecord
100
AcDbLayerTableRecord
  2
KESIT-DETAY_CIZGILERI
 70
     0
 62
     7
  6
Continuous
370
    -3
390
F
  0
LAYER
  5
81
330
2
100
AcDbSymbolTableRecord
100
AcDbLayerTableRecord
  2
\U+041E\U+0421\U+0415\U+0412\U+042B\U+0415
 70
     0
 62
     7
  6
Continuous
370
    -3
390
F
  0
LAYER
  5
82
330
2
100
AcDbSymbolTableRecord
100
AcDbLayerTableRecord
  2
\U+0412\U+041E\U+0414\U+042F\U+041D\U+042B\U+0415_\U+0417\U+041D\U+0410\U+041A\U+0418
 70
     0
 62
    11
  6
Continuous
370
    -3
390
F
  0
ENDTAB
  0
TABLE
  2
STYLE
  5
3
330
0
100
AcDbSymbolTable
 70
     1
  0
STYLE
  5
11
330
3
100
AcDbSymbolTableRecord
100
AcDbTextStyleTableRecord
  2
Standard
 70
     0
 40
0.0
 41
1.0
 50
0.0
 71
     0
 42
3.5
  3
txt
  4

  0
ENDTAB
  0
TABLE
  2
VIEW
  5
6
330
0
100
AcDbSymbolTable
 70
     0
  0
ENDTAB
  0
TABLE
  2
UCS
  5
7
330
0
100
AcDbSymbolTable
 70
     0
  0
ENDTAB
  0
TABLE
  2
APPID
  5
9
330
0
100
AcDbSymbolTable
 70
     1
  0
APPID
  5
12
330
9
100
AcDbSymbolTableRecord
100
AcDbRegAppTableRecord
  2
ACAD
 70
     0
  0
ENDTAB
  0
TABLE
  2
DIMSTYLE
  5
A
330
0
100
AcDbSymbolTable
 70
     1
100
AcDbDimStyleTable
  0
DIMSTYLE
105
27
330
A
100
AcDbSymbolTableRecord
100
AcDbDimStyleTableRecord
  2
ISO-25
 70
     0
 41
2.5
 42
0.625
 43
3.75
 44
1.25
 73
     0
 74
     0
 77
     1
 78
     8
140
2.5
141
2.5
143
0.0393700787
147
0.625
171
     3
172
     1
178
     0
271
     2
272
     2
274
     3
278
    44
283
     0
284
     8
340
11
  0
ENDTAB
  0
TABLE
  2
BLOCK_RECORD
  5
1
330
0
100
AcDbSymbolTable
 70
     3
  0
BLOCK_RECORD
  5
1F
330
1
100
AcDbSymbolTableRecord
100
AcDbBlockTableRecord
  2
*Model_Space
340
22
  0
BLOCK_RECORD
  5
1B
330
1
100
AcDbSymbolTableRecord
100
AcDbBlockTableRecord
  2
*Paper_Space
340
1E
  0
BLOCK_RECORD
  5
23
330
1
100
AcDbSymbolTableRecord
100
AcDbBlockTableRecord
  2
*Paper_Space0
340
26
  0
BLOCK_RECORD
  5
B1
330
1
100
AcDbSymbolTableRecord
100
AcDbBlockTableRecord
  2
SW_CENTERMARKSYMBOL_0
340
0
102
{BLKREFS
331
BC
102
}
  0
BLOCK_RECORD
  5
C7
330
1
100
AcDbSymbolTableRecord
100
AcDbBlockTableRecord
  2
SW_CENTERMARKSYMBOL_1
340
0
102
{BLKREFS
331
D2
102
}
  0
ENDTAB
  0
ENDSEC
  0
SECTION
  2
BLOCKS
  0
BLOCK
  5
20
330
1F
100
AcDbEntity
  8
0
100
AcDbBlockBegin
  2
*Model_Space
 70
     0
 10
0.0
 20
0.0
 30
0.0
  3
*Model_Space
  1

  0
ENDBLK
  5
21
330
1F
100
AcDbEntity
  8
0
100
AcDbBlockEnd
  0
BLOCK
  5
1C
330
1B
100
AcDbEntity
 67
     1
  8
0
100
AcDbBlockBegin
  2
*Paper_Space
 70
     0
 10
0.0
 20
0.0
 30
0.0
  3
*Paper_Space
  1

  0
ENDBLK
  5
1D
330
1B
100
AcDbEntity
 67
     1
  8
0
100
AcDbBlockEnd
  0
BLOCK
  5
24
330
23
100
AcDbEntity
  8
0
100
AcDbBlockBegin
  2
*Paper_Space0
 70
     0
 10
0.0
 20
0.0
 30
0.0
  3
*Paper_Space0
  1

  0
ENDBLK
  5
25
330
23
100
AcDbEntity
  8
0
100
AcDbBlockEnd
  0
BLOCK
  5
B2
330
B1
100
AcDbEntity
  8
0
100
AcDbBlockBegin
  2
SW_CENTERMARKSYMBOL_0
 70
     0
 10
0.0
 20
0.0
 30
0.0
  3
SW_CENTERMARKSYMBOL_0
  1

  0
LINE
  5
B4
330
B1
100
AcDbEntity
  8
FORMAT
 62
     0
100
AcDbLine
 10
0.0
 20
0.0
 30
0.0
 11
0.0
 21
2.5
 31
0.0
  0
LINE
  5
B5
330
B1
100
AcDbEntity
  8
FORMAT
 62
     0
100
AcDbLine
 10
0.0
 20
0.0
 30
0.0
 11
-2.5
 21
0.0
 31
0.0
  0
LINE
  5
B6
330
B1
100
AcDbEntity
  8
FORMAT
 62
     0
100
AcDbLine
 10
0.0
 20
0.0
 30
0.0
 11
0.0
 21
-2.5
 31
0.0
  0
LINE
  5
B7
330
B1
100
AcDbEntity
  8
FORMAT
 62
     0
100
AcDbLine
 10
0.0
 20
0.0
 30
0.0
 11
2.5
 21
0.0
 31
0.0
  0
LINE
  5
B8
330
B1
100
AcDbEntity
  8
FORMAT
 62
     0
100
AcDbLine
 10
0.0
 20
5.0
 30
0.0
 11
0.0
 21
102.5
 31
0.0
  0
LINE
  5
B9
330
B1
100
AcDbEntity
  8
FORMAT
 62
     0
100
AcDbLine
 10
-5.0
 20
0.0
 30
0.0
 11
-102.5
 21
0.0
 31
0.0
  0
LINE
  5
BA
330
B1
100
AcDbEntity
  8
FORMAT
 62
     0
100
AcDbLine
 10
0.0
 20
-5.0
 30
0.0
 11
0.0
 21
-102.5
 31
0.0
  0
LINE
  5
BB
330
B1
100
AcDbEntity
  8
FORMAT
 62
     0
100
AcDbLine
 10
5.0
 20
0.0
 30
0.0
 11
102.5
 21
0.0
 31
0.0
  0
ENDBLK
  5
B3
330
B1
100
AcDbEntity
  8
0
100
AcDbBlockEnd
  0
BLOCK
  5
C8
330
C7
100
AcDbEntity
  8
0
100
AcDbBlockBegin
  2
SW_CENTERMARKSYMBOL_1
 70
     0
 10
0.0
 20
0.0
 30
0.0
  3
SW_CENTERMARKSYMBOL_1
  1

  0
LINE
  5
CA
330
C7
100
AcDbEntity
  8
FORMAT
 62
     0
100
AcDbLine
 10
0.0
 20
0.0
 30
0.0
 11
0.0
 21
2.5
 31
0.0
  0
LINE
  5
CB
330
C7
100
AcDbEntity
  8
FORMAT
 62
     0
100
AcDbLine
 10
0.0
 20
0.0
 30
0.0
 11
-2.5
 21
0.0
 31
0.0
  0
LINE
  5
CC
330
C7
100
AcDbEntity
  8
FORMAT
 62
     0
100
AcDbLine
 10
0.0
 20
0.0
 30
0.0
 11
0.0
 21
-2.5
 31
0.0
  0
LINE
  5
CD
330
C7
100
AcDbEntity
  8
FORMAT
 62
     0
100
AcDbLine
 10
0.0
 20
0.0
 30
0.0
 11
2.5
 21
0.0
 31
0.0
  0
LINE
  5
CE
330
C7
100
AcDbEntity
  8
FORMAT
 62
     0
100
AcDbLine
 10
0.0
 20
5.0
 30
0.0
 11
0.0
 21
102.5
 31
0.0
  0
LINE
  5
CF
330
C7
100
AcDbEntity
  8
FORMAT
 62
     0
100
AcDbLine
 10
-5.0
 20
0.0
 30
0.0
 11
-102.5
 21
0.0
 31
0.0
  0
LINE
  5
D0
330
C7
100
AcDbEntity
  8
FORMAT
 62
     0
100
AcDbLine
 10
0.0
 20
-5.0
 30
0.0
 11
0.0
 21
-102.5
 31
0.0
  0
LINE
  5
D1
330
C7
100
AcDbEntity
  8
FORMAT
 62
     0
100
AcDbLine
 10
5.0
 20
0.0
 30
0.0
 11
102.5
 21
0.0
 31
0.0
  0
ENDBLK
  5
C9
330
C7
100
AcDbEntity
  8
0
100
AcDbBlockEnd
  0
ENDSEC
  0
SECTION
  2
ENTITIES
  0
LINE
  5
83
330
1F
100
AcDbEntity
  8
0
  6
Continuous
 62
     7
370
    25
100
AcDbLine
 10
23.7454039464
 20
99.6575225397
 30
0.0
 11
23.7454039464
 21
-37.9211138682
 31
0.0
  0
LINE
  5
84
330
1F
100
AcDbEntity
  8
0
  6
Continuous
 62
     7
370
    25
100
AcDbLine
 10
223.7454069266
 20
-37.9211138682
 30
0.0
 11
223.7454069266
 21
99.6575225397
 31
0.0
  0
ARC
  5
85
330
1F
100
AcDbEntity
  8
0
  6
Continuous
 62
     7
370
    25
100
AcDbCircle
 10
223.7454054365
 20
99.6575298945
 30
0.0
 40
200.0
100
AcDbArc
 50
135.0
 51
180.0
  0
LINE
  5
86
330
1F
100
AcDbEntity
  8
0
  6
Continuous
 62
     7
370
    25
100
AcDbLine
 10
185.0347270677
 20
343.7895644708
 30
0.0
 11
82.3240478942
 21
241.0789001985
 31
0.0
  0
LINE
  5
87
330
1F
100
AcDbEntity
  8
0
  6
Continuous
 62
     7
370
    25
100
AcDbLine
 10
223.7454069266
 20
99.6575225397
 30
0.0
 11
326.4560786495
 21
202.3682017131
 31
0.0
  0
LINE
  5
88
330
1F
100
AcDbEntity
  8
0
  6
Continuous
 62
     7
370
    25
100
AcDbLine
 10
123.7454054365
 20
-37.9211138682
 30
0.0
 11
223.7454069266
 21
-37.9211138682
 31
0.0
  0
LINE
  5
89
330
1F
100
AcDbEntity
  8
0
  6
Continuous
 62
     7
370
    25
100
AcDbLine
 10
23.7454039464
 20
-37.9211138682
 30
0.0
 11
123.7454054365
 21
-37.9211138682
 31
0.0
  0
LWPOLYLINE
  5
8A
330
1F
100
AcDbEntity
  8
0
  6
Continuous
 62
     7
370
    25
100
AcDbPolyline
 90
       28
 70
   128
 43
0.0
 10
255.7454047212
 20
273.0788756414
 10
259.9343446503
 20
268.8899506136
 10
264.1085771332
 20
264.7157181306
 10
268.2534394274
 20
260.5708409353
 10
272.3543581972
 20
256.4699221654
 10
276.396938921
 20
252.4273563428
 10
280.366980792
 20
248.4572995706
 10
284.2505363235
 20
244.5737589403
 10
288.033970953
 20
240.7903243108
 10
291.7039928446
 20
237.1203173204
 10
295.2476975927
 20
233.5765827699
 10
298.652657629
 20
230.1716376348
 10
301.906907321
 20
226.917402844
 10
304.9990025768
 20
223.825292687
 10
307.9180953512
 20
220.9061850114
 10
310.6539336452
 20
218.1703616186
 10
313.1969062099
 20
215.6273890539
 10
315.5380723486
 20
213.2862080141
 10
317.6692215214
 20
211.1550737424
 10
319.5828584442
 20
209.2414368196
 10
321.2722626934
 20
207.5520325704
 10
322.7314887056
 20
206.092791657
 10
323.9554402838
 20
204.86885498
 10
324.9397960911
 20
203.8844991727
 10
325.6811139593
 20
203.1431813045
 10
326.1767712841
 20
202.6475239797
 10
326.4250246296
 20
202.3992557331
 10
326.4560786495
 20
202.3682017131
  0
LWPOLYLINE
  5
8B
330
1F
100
AcDbEntity
  8
0
  6
Continuous
 62
     7
370
    25
100
AcDbPolyline
 90
       28
 70
   128
 43
0.0
 10
185.0347270677
 20
343.7895644708
 10
185.0657810876
 20
343.7585104509
 10
185.314045609
 20
343.5102571054
 10
185.8097029338
 20
343.0145848795
 10
186.5510133514
 20
342.2732819124
 10
187.5353691587
 20
341.2889112039
 10
188.7593132863
 20
340.0649894281
 10
190.2185541997
 20
338.6057485147
 10
191.9079584489
 20
336.9163442655
 10
193.8215953717
 20
335.0027073427
 10
195.9527370939
 20
332.8715432687
 10
198.2939106831
 20
330.5303920312
 10
200.8368757973
 20
327.9874194665
 10
203.5727140913
 20
325.2515662714
 10
206.4918068657
 20
322.3324883981
 10
209.5839095721
 20
319.2403782411
 10
212.8381592641
 20
315.9861434503
 10
216.2431118498
 20
312.5811685129
 10
219.7868240485
 20
309.0374637647
 10
223.4568459401
 20
305.3674567743
 10
227.240273119
 20
301.5840221448
 10
231.1238286505
 20
297.7004517122
 10
235.0938705215
 20
293.7304247423
 10
239.1364512453
 20
289.6878291173
 10
243.2373774657
 20
285.5869103475
 10
247.3822323093
 20
281.4420629545
 10
251.5564647922
 20
277.2678304716
 10
255.7454047212
 20
273.0788756414
  0
LINE
  5
8C
330
1F
100
AcDbEntity
  8
0
  6
Continuous
 62
     1
370
    25
100
AcDbLine
 10
23.7454039464
 20
99.6575225397
 30
0.0
 11
223.7454069266
 21
99.6575225397
 31
0.0
  0
LWPOLYLINE
  5
8D
330
1F
100
AcDbEntity
  8
0
  6
Continuous
 62
     1
370
    25
100
AcDbPolyline
 90
       54
 70
   128
 43
0.0
 10
82.3240478942
 20
241.0789001985
 10
82.4482378969
 20
240.9547139211
 10
82.8203608701
 20
240.5825723215
 10
83.4391166875
 20
239.9638165041
 10
84.3023260543
 20
239.1006220384
 10
85.4069640348
 20
237.9959691568
 10
86.7491488764
 20
236.6537917657
 10
88.3241606364
 20
235.0787688299
 10
90.126470984
 20
233.2764733835
 10
92.1497506509
 20
231.2531937166
 10
94.3868880579
 20
229.0160525842
 10
96.8300302932
 20
226.5729177995
 10
99.4705942879
 20
223.932342629
 10
102.2993022064
 20
221.1036253973
 10
105.3062224248
 20
218.09672008
 10
108.4807890887
 20
214.9221468969
 10
111.8118533352
 20
211.591081719
 10
115.2877140278
 20
208.1152219577
 10
118.89616339
 20
204.5067716642
 10
122.6245251903
 20
200.7784117265
 10
126.459704102
 20
196.9432253643
 10
130.388228544
 20
193.0147130294
 10
134.3963000411
 20
189.0066284938
 10
138.4698397899
 20
184.9330980583
 10
142.594538019
 20
180.8083970352
 10
146.7559089372
 20
176.6470242544
 10
150.9393354366
 20
172.463597755
 10
155.1301193843
 20
168.272810082
 10
159.3135458836
 20
164.0893835826
 10
163.4749149391
 20
159.928025703
 10
167.5996159623
 20
155.8033246799
 10
171.6731538484
 20
151.7297793432
 10
175.6812272081
 20
147.7217097087
 10
179.6097507188
 20
143.7931824728
 10
183.4449296305
 20
139.9580110117
 10
187.1732932935
 20
136.229651074
 10
190.781743587
 20
132.6212007804
 10
194.2576033482
 20
129.1453410192
 10
197.5886685262
 20
125.8142758413
 10
200.7632342586
 20
122.6397026582
 10
203.7701544771
 20
119.6327824398
 10
206.5988642583
 20
116.8040801092
 10
209.2394245276
 20
114.1635049387
 10
211.6825667629
 20
111.720370154
 10
213.9197078953
 20
109.4832290216
 10
215.9429801116
 20
107.4599493547
 10
217.7452979097
 20
105.6576390071
 10
219.3203059444
 20
104.0826309724
 10
220.6624907861
 20
102.7404386802
 10
221.7671287665
 20
101.6358156009
 10
222.6303381333
 20
100.772591333
 10
223.2490939507
 20
100.1538355156
 10
223.6212206492
 20
99.7817237182
 10
223.7454069266
 20
99.6575225397
  0
LINE
  5
8E
330
1F
100
AcDbEntity
  8
0
  6
Continuous
 62
     7
370
    25
100
AcDbLine
 10
-317.2960435198
 20
273.0788756414
 30
0.0
 11
-317.2960435198
 21
170.3682113691
 31
0.0
  0
LINE
  5
8F
330
1F
100
AcDbEntity
  8
0
  6
Continuous
 62
     7
370
    25
100
AcDbLine
 10
-117.2960405396
 20
170.3682113691
 30
0.0
 11
-117.2960405396
 21
273.0788756414
 31
0.0
  0
LINE
  5
90
330
1F
100
AcDbEntity
  8
0
  6
Continuous
 62
     7
370
    25
100
AcDbLine
 10
-317.2960435198
 20
170.3682113691
 30
0.0
 11
-317.2960435198
 21
99.6575225397
 31
0.0
  0
LINE
  5
91
330
1F
100
AcDbEntity
  8
0
  6
Continuous
 62
     7
370
    25
100
AcDbLine
 10
-117.2960405396
 20
99.6575225397
 30
0.0
 11
-117.2960405396
 21
170.3682113691
 31
0.0
  0
LINE
  5
92
330
1F
100
AcDbEntity
  8
0
  6
Continuous
 62
     7
370
    25
100
AcDbLine
 10
-317.2960435198
 20
99.6575225397
 30
0.0
 11
-317.2960435198
 21
-37.9211138682
 31
0.0
  0
LINE
  5
93
330
1F
100
AcDbEntity
  8
0
  6
Continuous
 62
     7
370
    25
100
AcDbLine
 10
-117.2960405396
 20
-37.9211138682
 30
0.0
 11
-117.2960405396
 21
99.6575225397
 31
0.0
  0
LWPOLYLINE
  5
94
330
1F
100
AcDbEntity
  8
0
  6
Continuous
 62
     7
370
    25
100
AcDbPolyline
 90
      107
 70
   128
 43
0.0
 10
-317.2960435198
 20
273.0788756414
 10
-317.120418434
 20
268.8899506136
 10
-316.5941541241
 20
264.7157181306
 10
-315.7190983341
 20
260.5708409353
 10
-314.4983356045
 20
256.4699221654
 10
-312.9361425684
 20
252.4273563428
 10
-311.0380103038
 20
248.4572995706
 10
-308.8106070803
 20
244.5737589403
 10
-306.2617485569
 20
240.7903243108
 10
-303.4004052327
 20
237.1203173204
 10
-300.2366130398
 20
233.5765827699
 10
-296.7814882444
 20
230.1716376348
 10
-293.0471678422
 20
226.917402844
 10
-289.0467648552
 20
223.825292687
 10
-284.7943385289
 20
220.9061850114
 10
-280.3048272775
 20
218.1703616186
 10
-275.5939890788
 20
215.6273890539
 10
-270.678379123
 20
213.2862080141
 10
-265.5752641307
 20
211.1550737424
 10
-260.302562748
 20
209.2414368196
 10
-254.8788008438
 20
207.5520325704
 10
-249.3230258272
 20
206.092791657
 10
-243.6547582196
 20
204.86885498
 10
-237.8939041094
 20
203.8844991727
 10
-232.0606983425
 20
203.1431813045
 10
-226.1756318779
 20
202.6475239797
 10
-220.2593747219
 20
202.3992557331
 10
-214.3327093375
 20
202.3992557331
 10
-208.4164521815
 20
202.6475239797
 10
-202.5313857169
 20
203.1431813045
 10
-196.69817995
 20
203.8844991727
 10
-190.9373258398
 20
204.86885498
 10
-185.2690582321
 20
206.092791657
 10
-179.7132832156
 20
207.5520325704
 10
-174.2895213114
 20
209.2414368196
 10
-169.0168199287
 20
211.1550737424
 10
-163.9137049363
 20
213.2862080141
 10
-158.9980949805
 20
215.6273890539
 10
-154.2872567819
 20
218.1703616186
 10
-149.7977455304
 20
220.9061850114
 10
-145.5453192042
 20
223.825292687
 10
-141.5449162172
 20
226.917402844
 10
-137.810595815
 20
230.1716376348
 10
-134.3554710196
 20
233.5765827699
 10
-131.1916788266
 20
237.1203173204
 10
-128.3303355025
 20
240.7903243108
 10
-125.7814769791
 20
244.5737589403
 10
-123.5540737556
 20
248.4572995706
 10
-121.655941491
 20
252.4273563428
 10
-120.0937484549
 20
256.4699221654
 10
-118.8729857252
 20
260.5708409353
 10
-117.9979299353
 20
264.7157181306
 10
-117.4716656254
 20
268.8899506136
 10
-117.2960405396
 20
273.0788756414
 10
-117.4716656254
 20
277.2678304716
 10
-117.9979299353
 20
281.4420629545
 10
-118.8729857252
 20
285.5869103475
 10
-120.0937484549
 20
289.6878291173
 10
-121.655941491
 20
293.7304247423
 10
-123.5540737556
 20
297.7004517122
 10
-125.7814769791
 20
301.5840221448
 10
-128.3303355025
 20
305.3674567743
 10
-131.1916788266
 20
309.0374637647
 10
-134.3554710196
 20
312.5811685129
 10
-137.810595815
 20
315.9861434503
 10
-141.5449162172
 20
319.2403782411
 10
-145.5453192042
 20
322.3324883981
 10
-149.7977455304
 20
325.2515662714
 10
-154.2872567819
 20
327.9874194665
 10
-158.9980949805
 20
330.5303920312
 10
-163.9137049363
 20
332.8715432687
 10
-169.0168199287
 20
335.0027073427
 10
-174.2895213114
 20
336.9163442655
 10
-179.7132832156
 20
338.6057485147
 10
-185.2690582321
 20
340.0649894281
 10
-190.9373258398
 20
341.2889112039
 10
-196.69817995
 20
342.2732819124
 10
-202.5313857169
 20
343.0145848795
 10
-208.4164521815
 20
343.5102571054
 10
-214.3327093375
 20
343.7585104509
 10
-220.2593747219
 20
343.7585104509
 10
-226.1756318779
 20
343.5102571054
 10
-232.0606983425
 20
343.0145848795
 10
-237.8939041094
 20
342.2732819124
 10
-243.6547582196
 20
341.2889112039
 10
-249.3230258272
 20
340.0649894281
 10
-254.8788008438
 20
338.6057485147
 10
-260.302562748
 20
336.9163442655
 10
-265.5752641307
 20
335.0027073427
 10
-270.678379123
 20
332.8715432687
 10
-275.5939890788
 20
330.5303920312
 10
-280.3048272775
 20
327.9874194665
 10
-284.7943385289
 20
325.2515662714
 10
-289.0467648552
 20
322.3324883981
 10
-293.0471678422
 20
319.2403782411
 10
-296.7814882444
 20
315.9861434503
 10
-300.2366130398
 20
312.5811685129
 10
-303.4004052327
 20
309.0374637647
 10
-306.2617485569
 20
305.3674567743
 10
-308.8106070803
 20
301.5840221448
 10
-311.0380103038
 20
297.7004517122
 10
-312.9361425684
 20
293.7304247423
 10
-314.4983356045
 20
289.6878291173
 10
-315.7190983341
 20
285.5869103475
 10
-316.5941541241
 20
281.4420629545
 10
-317.120418434
 20
277.2678304716
 10
-317.2960435198
 20
273.0788756414
  0
LWPOLYLINE
  5
95
330
1F
100
AcDbEntity
  8
0
  6
Continuous
 62
     7
370
    25
100
AcDbPolyline
 90
       97
 70
   128
 43
0.0
 10
-299.0960409091
 20
273.0788756414
 10
-298.920900111
 20
276.8618930383
 10
-298.3962302254
 20
280.6286979719
 10
-297.5242813276
 20
284.3631673856
 10
-296.3087712572
 20
288.0493272348
 10
-294.754930322
 20
291.6713822885
 10
-292.8693895386
 20
295.2138055368
 10
-290.660232787
 20
298.6614573999
 10
-288.1369223045
 20
301.9995559259
 10
-285.3102539824
 20
305.2137960001
 10
-282.1923424648
 20
308.2904685541
 10
-278.796539192
 20
311.2163413568
 10
-275.1373765217
 20
313.9788974329
 10
-271.2305304752
 20
316.5663052602
 10
-267.0927276061
 20
318.9675081773
 10
-262.7416853951
 20
321.1721945806
 10
-258.1960414694
 20
323.1709469362
 10
-253.4752567456
 20
324.9552119775
 10
-248.5995483742
 20
326.5173007055
 10
-243.5897910194
 20
327.8505970045
 10
-238.4674404906
 20
328.9493192239
 10
-233.254431297
 20
329.8088182016
 10
-227.9730844469
 20
330.4253686472
 10
-222.6460180403
 20
330.7963777586
 10
-217.2960420297
 20
330.9202064081
 10
-211.9460660191
 20
330.7963777586
 10
-206.6189996125
 20
330.4253686472
 10
-201.3376527624
 20
329.8088182016
 10
-196.1246435688
 20
328.9493192239
 10
-191.00229304
 20
327.8505970045
 10
-185.9925356851
 20
326.5173007055
 10
-181.1168273137
 20
324.9552119775
 10
-176.39604259
 20
323.1709469362
 10
-171.8503986643
 20
321.1721945806
 10
-167.4993564533
 20
318.9675081773
 10
-163.3615535842
 20
316.5663052602
 10
-159.4547075377
 20
313.9788974329
 10
-155.7955448673
 20
311.2163413568
 10
-152.3997415946
 20
308.2904685541
 10
-149.281830077
 20
305.2137960001
 10
-146.4551617549
 20
301.9995559259
 10
-143.9318512724
 20
298.6614573999
 10
-141.7226945208
 20
295.2138055368
 10
-139.8371537374
 20
291.6713822885
 10
-138.2833128021
 20
288.0493272348
 10
-137.0678027318
 20
284.3631673856
 10
-136.195853834
 20
280.6286979719
 10
-135.6711839483
 20
276.8618930383
 10
-135.4960431503
 20
273.0788756414
 10
-135.6711839483
 20
269.2958880468
 10
-136.195853834
 20
265.5290831132
 10
-137.0678027318
 20
261.7946136995
 10
-138.2833128021
 20
258.1084538503
 10
-139.8371537374
 20
254.4863987966
 10
-141.7226945208
 20
250.9439755483
 10
-143.9318512724
 20
247.4963236852
 10
-146.4551617549
 20
244.1582251592
 10
-149.281830077
 20
240.9439552827
 10
-152.3997415946
 20
237.867312531
 10
-155.7955448673
 20
234.9414397283
 10
-159.4547075377
 20
232.1788836523
 10
-163.3615535842
 20
229.5914758249
 10
-167.4993564533
 20
227.1902729078
 10
-171.8503986643
 20
224.9855865045
 10
-176.39604259
 20
222.9868341489
 10
-181.1168273137
 20
221.2025691076
 10
-185.9925356851
 20
219.6404505773
 10
-191.00229304
 20
218.3071840807
 10
-196.1246435688
 20
217.2084618612
 10
-201.3376527624
 20
216.3489628835
 10
-206.6189996125
 20
215.7323826356
 10
-211.9460660191
 20
215.3614033266
 10
-217.2960420297
 20
215.2375448747
 10
-222.6460180403
 20
215.3614033266
 10
-227.9730844469
 20
215.7323826356
 10
-233.254431297
 20
216.3489628835
 10
-238.4674404906
 20
217.2084618612
 10
-243.5897910194
 20
218.3071840807
 10
-248.5995483742
 20
219.6404505773
 10
-253.4752567456
 20
221.2025691076
 10
-258.1960414694
 20
222.9868341489
 10
-262.7416853951
 20
224.9855865045
 10
-267.0927276061
 20
227.1902729078
 10
-271.2305304752
 20
229.5914758249
 10
-275.1373765217
 20
232.1788836523
 10
-278.796539192
 20
234.9414397283
 10
-282.1923424648
 20
237.867312531
 10
-285.3102539824
 20
240.9439552827
 10
-288.1369223045
 20
244.1582251592
 10
-290.660232787
 20
247.4963236852
 10
-292.8693895386
 20
250.9439755483
 10
-294.754930322
 20
254.4863987966
 10
-296.3087712572
 20
258.1084538503
 10
-297.5242813276
 20
261.7946136995
 10
-298.3962302254
 20
265.5290831132
 10
-298.920900111
 20
269.2958880468
 10
-299.0960409091
 20
273.0788756414
  0
LINE
  5
96
330
1F
100
AcDbEntity
  8
0
  6
Continuous
 62
     7
370
    25
100
AcDbLine
 10
-317.2960435198
 20
-37.9211138682
 30
0.0
 11
-117.2960405396
 21
-37.9211138682
 31
0.0
  0
LWPOLYLINE
  5
97
330
1F
100
AcDbEntity
  8
0
  6
Continuous
 62
     1
370
    25
100
AcDbPolyline
 90
       28
 70
   128
 43
0.0
 10
-217.2960420297
 20
99.6575225397
 10
-211.3719792263
 20
99.7817237182
 10
-205.4687249632
 20
100.1538355156
 10
-199.6070151375
 20
100.772591333
 10
-193.8074366347
 20
101.6358156009
 10
-188.0903658615
 20
102.7404386802
 10
-182.4758802698
 20
104.0826309724
 10
-176.983699684
 20
105.6576390071
 10
-171.6331173824
 20
107.4599493547
 10
-166.4429311798
 20
109.4832290216
 10
-161.4313651965
 20
111.720370154
 10
-156.6160288797
 20
114.1635049387
 10
-152.013831322
 20
116.8040801092
 10
-147.6409365581
 20
119.6327824398
 10
-143.5127114104
 20
122.6397026582
 10
-139.6436547087
 20
125.8142758413
 10
-136.0473563121
 20
129.1453410192
 10
-132.7364449547
 20
132.6212007804
 10
-129.7225509928
 20
136.229651074
 10
-127.0162617014
 20
139.9580110117
 10
-124.6270840214
 20
143.7931824728
 10
-122.5634073065
 20
147.7217097087
 10
-120.8324809716
 20
151.7297793432
 10
-119.4403921412
 20
155.8033246799
 10
-118.3920209454
 20
159.928025703
 10
-117.6910554217
 20
164.0893835826
 10
-117.3399617122
 20
168.272810082
 10
-117.2960405396
 20
170.3682113691
  0
LWPOLYLINE
  5
98
330
1F
100
AcDbEntity
  8
0
  6
Continuous
 62
     1
370
    25
100
AcDbPolyline
 90
       28
 70
   128
 43
0.0
 10
-317.2960435198
 20
170.3682113691
 10
-317.2521223472
 20
168.272810082
 10
-316.9010286377
 20
164.0893835826
 10
-316.200063114
 20
159.928025703
 10
-315.1516919182
 20
155.8033246799
 10
-313.7596030877
 20
151.7297793432
 10
-312.0286767529
 20
147.7217097087
 10
-309.965000038
 20
143.7931824728
 10
-307.575822358
 20
139.9580110117
 10
-304.8695330666
 20
136.229651074
 10
-301.8556391047
 20
132.6212007804
 10
-298.5447277473
 20
129.1453410192
 10
-294.9484293507
 20
125.8142758413
 10
-291.079372649
 20
122.6397026582
 10
-286.9511475013
 20
119.6327824398
 10
-282.5782527374
 20
116.8040801092
 10
-277.9760551797
 20
114.1635049387
 10
-273.1607188628
 20
111.720370154
 10
-268.1491528795
 20
109.4832290216
 10
-262.958966677
 20
107.4599493547
 10
-257.6083843754
 20
105.6576390071
 10
-252.1162037895
 20
104.0826309724
 10
-246.5017181979
 20
102.7404386802
 10
-240.7846474246
 20
101.6358156009
 10
-234.9850689219
 20
100.772591333
 10
-229.1233590962
 20
100.1538355156
 10
-223.2201048331
 20
99.7817237182
 10
-217.2960420297
 20
99.6575225397
  0
ARC
  5
99
330
1F
100
AcDbEntity
  8
0
  6
Continuous
 62
     1
370
    25
100
AcDbCircle
 10
-217.2960420297
 20
116.4270406607
 30
0.0
 40
111.8206232357027
100
AcDbArc
 50
70.3314576892
 51
109.6685423108
  0
LINE
  5
9A
330
1F
100
AcDbEntity
  8
0
  6
Continuous
 62
     1
370
    25
100
AcDbLine
 10
-217.2960420297
 20
99.6575225397
 30
0.0
 11
-117.2960405396
 21
99.6575225397
 31
0.0
  0
LINE
  5
9B
330
1F
100
AcDbEntity
  8
0
  6
Continuous
 62
     1
370
    25
100
AcDbLine
 10
-317.2960435198
 20
99.6575225397
 30
0.0
 11
-217.2960420297
 21
99.6575225397
 31
0.0
  0
LINE
  5
9C
330
1F
100
AcDbEntity
  8
0
  6
Continuous
 62
     7
370
    25
100
AcDbLine
 10
436.0637368528
 20
99.6575225397
 30
0.0
 11
436.0637368528
 21
-37.9211138682
 31
0.0
  0
LINE
  5
9D
330
1F
100
AcDbEntity
  8
0
  6
Continuous
 62
     7
370
    25
100
AcDbLine
 10
636.063739833
 20
-37.9211138682
 30
0.0
 11
636.063739833
 21
99.6575225397
 31
0.0
  0
LINE
  5
9E
330
1F
100
AcDbEntity
  8
0
  6
Continuous
 62
     7
370
    25
100
AcDbLine
 10
636.063739833
 20
99.6575225397
 30
0.0
 11
636.063739833
 21
170.3682113691
 31
0.0
  0
LINE
  5
9F
330
1F
100
AcDbEntity
  8
0
  6
Continuous
 62
     7
370
    25
100
AcDbLine
 10
436.0637368528
 20
170.3682113691
 30
0.0
 11
436.0637368528
 21
99.6575225397
 31
0.0
  0
LINE
  5
A0
330
1F
100
AcDbEntity
  8
0
  6
Continuous
 62
     7
370
    25
100
AcDbLine
 10
436.0637368528
 20
273.0788756414
 30
0.0
 11
436.0637368528
 21
170.3682113691
 31
0.0
  0
LINE
  5
A1
330
1F
100
AcDbEntity
  8
0
  6
Continuous
 62
     7
370
    25
100
AcDbLine
 10
636.063739833
 20
170.3682113691
 30
0.0
 11
636.063739833
 21
273.0788756414
 31
0.0
  0
LINE
  5
A2
330
1F
100
AcDbEntity
  8
0
  6
Continuous
 62
     7
370
    25
100
AcDbLine
 10
436.0637368528
 20
-37.9211138682
 30
0.0
 11
636.063739833
 21
-37.9211138682
 31
0.0
  0
LWPOLYLINE
  5
A3
330
1F
100
AcDbEntity
  8
0
  6
Continuous
 62
     7
370
    25
100
AcDbPolyline
 90
       54
 70
   128
 43
0.0
 10
436.0637368528
 20
273.0788756414
 10
436.2393619386
 20
277.2678304716
 10
436.7656262485
 20
281.4420629545
 10
437.6406820385
 20
285.5869103475
 10
438.8614447681
 20
289.6878291173
 10
440.4236378042
 20
293.7304247423
 10
442.3217700688
 20
297.7004517122
 10
444.5491732923
 20
301.5840221448
 10
447.0980318157
 20
305.3674567743
 10
449.9593751399
 20
309.0374637647
 10
453.1231673328
 20
312.5811685129
 10
456.5782921282
 20
315.9861434503
 10
460.3126125304
 20
319.2403782411
 10
464.3130155174
 20
322.3324883981
 10
468.5654418437
 20
325.2515662714
 10
473.0549530951
 20
327.9874194665
 10
477.7657912938
 20
330.5303920312
 10
482.6814012496
 20
332.8715432687
 10
487.7845162419
 20
335.0027073427
 10
493.0572176246
 20
336.9163442655
 10
498.4809795288
 20
338.6057485147
 10
504.0367545454
 20
340.0649894281
 10
509.7050221531
 20
341.2889112039
 10
515.4658762632
 20
342.2732819124
 10
521.2990820302
 20
343.0145848795
 10
527.1841484947
 20
343.5102571054
 10
533.1004056508
 20
343.7585104509
 10
539.0270710351
 20
343.7585104509
 10
544.9433281911
 20
343.5102571054
 10
550.8283946557
 20
343.0145848795
 10
556.6616004227
 20
342.2732819124
 10
562.4224545328
 20
341.2889112039
 10
568.0907221405
 20
340.0649894281
 10
573.646497157
 20
338.6057485147
 10
579.0702590613
 20
336.9163442655
 10
584.3429604439
 20
335.0027073427
 10
589.4460754363
 20
332.8715432687
 10
594.3616853921
 20
330.5303920312
 10
599.0725235907
 20
327.9874194665
 10
603.5620348422
 20
325.2515662714
 10
607.8144611684
 20
322.3324883981
 10
611.8148641554
 20
319.2403782411
 10
615.5491845576
 20
315.9861434503
 10
619.004309353
 20
312.5811685129
 10
622.168101546
 20
309.0374637647
 10
625.0294448702
 20
305.3674567743
 10
627.5783033935
 20
301.5840221448
 10
629.805706617
 20
297.7004517122
 10
631.7038388816
 20
293.7304247423
 10
633.2660319177
 20
289.6878291173
 10
634.4867946474
 20
285.5869103475
 10
635.3618504373
 20
281.4420629545
 10
635.8881147472
 20
277.2678304716
 10
636.063739833
 20
273.0788756414
  0
LINE
  5
A4
330
1F
100
AcDbEntity
  8
0
  6
Continuous
 62
     1
370
    25
100
AcDbLine
 10
436.0637368528
 20
99.6575225397
 30
0.0
 11
636.063739833
 21
99.6575225397
 31
0.0
  0
LWPOLYLINE
  5
A5
330
1F
100
AcDbEntity
  8
0
  6
Continuous
 62
     1
370
    25
100
AcDbPolyline
 90
       55
 70
   128
 43
0.0
 10
436.0637368528
 20
170.3682113691
 10
436.1076580254
 20
172.463597755
 10
436.4587517349
 20
176.6470242544
 10
437.1597172586
 20
180.8083970352
 10
438.2080884544
 20
184.9330980583
 10
439.6001772849
 20
189.0066284938
 10
441.3311036197
 20
193.0147130294
 10
443.3947803346
 20
196.9432253643
 10
445.7839580146
 20
200.7784117265
 10
448.490247306
 20
204.5067716642
 10
451.5041412679
 20
208.1152219577
 10
454.8150526253
 20
211.591081719
 10
458.4113510219
 20
214.9221468969
 10
462.2804077236
 20
218.09672008
 10
466.4086328713
 20
221.1036253973
 10
470.7815276353
 20
223.932342629
 10
475.3837251929
 20
226.5729177995
 10
480.1990615098
 20
229.0160525842
 10
485.2106274931
 20
231.2531937166
 10
490.4008136956
 20
233.2764733835
 10
495.7513959972
 20
235.0787688299
 10
501.2435765831
 20
236.6537917657
 10
506.8580621747
 20
237.9959691568
 10
512.575132948
 20
239.1006220384
 10
518.3747114507
 20
239.9638165041
 10
524.2364212764
 20
240.5825723215
 10
530.1396755395
 20
240.9547139211
 10
536.0637383429
 20
241.0789001985
 10
541.9878011463
 20
240.9547139211
 10
547.8910554094
 20
240.5825723215
 10
553.7527652351
 20
239.9638165041
 10
559.5523437379
 20
239.1006220384
 10
565.2694145111
 20
237.9959691568
 10
570.8839001028
 20
236.6537917657
 10
576.3760806886
 20
235.0787688299
 10
581.7266629903
 20
233.2764733835
 10
586.9168491928
 20
231.2531937166
 10
591.9284151761
 20
229.0160525842
 10
596.7437514929
 20
226.5729177995
 10
601.3459490506
 20
223.932342629
 10
605.7188438145
 20
221.1036253973
 10
609.8470689623
 20
218.09672008
 10
613.7161256639
 20
214.9221468969
 10
617.3124240605
 20
211.591081719
 10
620.6233354179
 20
208.1152219577
 10
623.6372293798
 20
204.5067716642
 10
626.3435186712
 20
200.7784117265
 10
628.7326963512
 20
196.9432253643
 10
630.7963730661
 20
193.0147130294
 10
632.527299401
 20
189.0066284938
 10
633.9193882314
 20
184.9330980583
 10
634.9677594272
 20
180.8083970352
 10
635.6687249509
 20
176.6470242544
 10
636.0198186604
 20
172.463597755
 10
636.063739833
 20
170.3682113691
  0
LINE
  5
A6
330
1F
100
AcDbEntity
  8
0
  6
Continuous
 62
     7
370
    25
100
AcDbLine
 10
255.7454047212
 20
648.3019273472
 30
0.0
 11
153.0347274104
 21
648.3019273472
 31
0.0
  0
LINE
  5
A7
330
1F
100
AcDbEntity
  8
0
  6
Continuous
 62
     7
370
    25
100
AcDbLine
 10
153.0347274104
 20
448.301924367
 30
0.0
 11
255.7454047212
 21
448.301924367
 31
0.0
  0
LINE
  5
A8
330
1F
100
AcDbEntity
  8
0
  6
Continuous
 62
     7
370
    25
100
AcDbLine
 10
153.0347274104
 20
648.3019273472
 30
0.0
 11
123.7454054365
 21
648.3019273472
 31
0.0
  0
LINE
  5
A9
330
1F
100
AcDbEntity
  8
0
  6
Continuous
 62
     7
370
    25
100
AcDbLine
 10
123.7454054365
 20
448.301924367
 30
0.0
 11
153.0347274104
 21
448.301924367
 31
0.0
  0
CIRCLE
  5
AA
330
1F
100
AcDbEntity
  8
0
  6
Continuous
 62
     7
370
    25
100
AcDbCircle
 10
123.7454054365
 20
548.3019258571
 30
0.0
 40
81.80000000000007
  0
CIRCLE
  5
AB
330
1F
100
AcDbEntity
  8
0
  6
Continuous
 62
     7
370
    25
100
AcDbCircle
 10
123.7454054365
 20
548.3019258571
 30
0.0
 40
100.0
  0
LWPOLYLINE
  5
AC
330
1F
100
AcDbEntity
  8
0
  6
Continuous
 62
     7
370
    25
100
AcDbPolyline
 90
       55
 70
   128
 43
0.0
 10
255.7454047212
 20
648.3019273472
 10
259.9343446503
 20
648.1263022614
 10
264.1085771332
 20
647.6000379515
 10
268.2534394274
 20
646.7249821615
 10
272.3543581972
 20
645.5042194319
 10
276.396938921
 20
643.9420263958
 10
280.366980792
 20
642.0438941312
 10
284.2505363235
 20
639.8164909077
 10
288.033970953
 20
637.2676323843
 10
291.7039928446
 20
634.4062890601
 10
295.2476975927
 20
631.2424968672
 10
298.652657629
 20
627.7873720718
 10
301.906907321
 20
624.0530516696
 10
304.9990025768
 20
620.0526486826
 10
307.9180953512
 20
615.8002223563
 10
310.6539336452
 20
611.3107111049
 10
313.1969062099
 20
606.5998729062
 10
315.5380723486
 20
601.6842629504
 10
317.6692215214
 20
596.5811479581
 10
319.5828584442
 20
591.3084465754
 10
321.2722626934
 20
585.8846846712
 10
322.7314887056
 20
580.3289096546
 10
323.9554402838
 20
574.6606420469
 10
324.9397960911
 20
568.8997879368
 10
325.6811139593
 20
563.0665821698
 10
326.1767712841
 20
557.1815157053
 10
326.4250246296
 20
551.2652585492
 10
326.4250246296
 20
545.3385931649
 10
326.1767712841
 20
539.4223360089
 10
325.6811139593
 20
533.5372695443
 10
324.9397960911
 20
527.7040637773
 10
323.9554402838
 20
521.9432096672
 10
322.7314887056
 20
516.2749420595
 10
321.2722626934
 20
510.719167043
 10
319.5828584442
 20
505.2954051387
 10
317.6692215214
 20
500.0227037561
 10
315.5380723486
 20
494.9195887637
 10
313.1969062099
 20
490.0039788079
 10
310.6539336452
 20
485.2931406093
 10
307.9180953512
 20
480.8036293578
 10
304.9990025768
 20
476.5512030316
 10
301.906907321
 20
472.5508000445
 10
298.652657629
 20
468.8164796424
 10
295.2476975927
 20
465.361354847
 10
291.7039928446
 20
462.197562654
 10
288.033970953
 20
459.3362193298
 10
284.2505363235
 20
456.7873608065
 10
280.366980792
 20
454.559957583
 10
276.396938921
 20
452.6618253183
 10
272.3543581972
 20
451.0996322823
 10
268.2534394274
 20
449.8788695526
 10
264.1085771332
 20
449.0038137627
 10
259.9343446503
 20
448.4775494528
 10
255.7454047212
 20
448.301924367
 10
255.7454047212
 20
448.301924367
  0
ARC
  5
AD
330
1F
100
AcDbEntity
  8
0
  6
Continuous
 62
     7
370
    25
100
AcDbCircle
 10
311.6338045946
 20
548.3019258571
 30
0.0
 40
113.74004123811
100
AcDbArc
 50
166.4293925823
 51
193.5706074177
  0
LWPOLYLINE
  5
AE
330
1F
100
AcDbEntity
  8
0
  6
Continuous
 62
     1
370
    25
100
AcDbPolyline
 90
       28
 70
   128
 43
0.0
 10
223.7454069266
 20
548.3019258571
 10
223.6212206492
 20
542.3778630537
 10
223.2490939507
 20
536.4746087906
 10
222.6303381333
 20
530.6128989649
 10
221.7671287665
 20
524.8133204621
 10
220.6624907861
 20
519.0962496889
 10
219.3203059444
 20
513.4817640972
 10
217.7452979097
 20
507.9895835114
 10
215.9429801116
 20
502.6390012097
 10
213.9197078953
 20
497.4488150072
 10
211.6825667629
 20
492.4372490239
 10
209.2394245276
 20
487.6219127071
 10
206.5988642583
 20
483.0197151494
 10
203.7701544771
 20
478.6468203855
 10
200.7632342586
 20
474.5185952377
 10
197.5886685262
 20
470.6495385361
 10
194.2576033482
 20
467.0532401395
 10
190.781743587
 20
463.7423287821
 10
187.1732932935
 20
460.7284348202
 10
183.4449296305
 20
458.0221455288
 10
179.6097507188
 20
455.6329678488
 10
175.6812272081
 20
453.5692911339
 10
171.6731538484
 20
451.838364799
 10
167.5996159623
 20
450.4462759686
 10
163.4749149391
 20
449.3979047728
 10
159.3135458836
 20
448.696939249
 10
155.1301193843
 20
448.3458455396
 10
153.0347274104
 20
448.301924367
  0
LWPOLYLINE
  5
AF
330
1F
100
AcDbEntity
  8
0
  6
Continuous
 62
     1
370
    25
100
AcDbPolyline
 90
       28
 70
   128
 43
0.0
 10
153.0347274104
 20
648.3019273472
 10
155.1301193843
 20
648.2580061746
 10
159.3135458836
 20
647.9069124651
 10
163.4749149391
 20
647.2059469414
 10
167.5996159623
 20
646.1575757456
 10
171.6731538484
 20
644.7654869151
 10
175.6812272081
 20
643.0345605803
 10
179.6097507188
 20
640.9708838654
 10
183.4449296305
 20
638.5817061854
 10
187.1732932935
 20
635.875416894
 10
190.781743587
 20
632.8615229321
 10
194.2576033482
 20
629.5506115747
 10
197.5886685262
 20
625.9543131781
 10
200.7632342586
 20
622.0852564764
 10
203.7701544771
 20
617.9570313287
 10
206.5988642583
 20
613.5841365647
 10
209.2394245276
 20
608.9819390071
 10
211.6825667629
 20
604.1666026902
 10
213.9197078953
 20
599.1550367069
 10
215.9429801116
 20
593.9648505044
 10
217.7452979097
 20
588.6142682028
 10
219.3203059444
 20
583.1220876169
 10
220.6624907861
 20
577.5076020253
 10
221.7671287665
 20
571.790531252
 10
222.6303381333
 20
565.9909527493
 10
223.2490939507
 20
560.1292429236
 10
223.6212206492
 20
554.2259886605
 10
223.7454069266
 20
548.3019258571
  0
LWPOLYLINE
  5
B0
330
1F
100
AcDbEntity
  8
0
  6
Continuous
 62
     1
370
    25
100
AcDbPolyline
 90
       43
 70
   128
 43
0.0
 10
140.9026937047
 20
628.2823439431
 10
138.0642879242
 20
627.3146550846
 10
134.4422393898
 20
625.7608141494
 10
130.8998068282
 20
623.875273366
 10
127.4521591561
 20
621.6661166144
 10
124.1140599607
 20
619.1428061319
 10
120.8998035593
 20
616.3161378098
 10
117.8231535899
 20
613.1982262921
 10
114.8972849781
 20
609.8024230194
 10
112.1347270394
 20
606.143260349
 10
109.5473089675
 20
602.2364143026
 10
107.1461116383
 20
598.0986114335
 10
104.9414159218
 20
593.7475692225
 10
102.9426617036
 20
589.2019252968
 10
101.1584115634
 20
584.481140573
 10
99.5963023463
 20
579.6054322016
 10
98.2630246738
 20
574.5956748468
 10
97.1642875532
 20
569.4733243179
 10
96.3047978887
 20
564.2603151244
 10
95.688232542
 20
558.9789682743
 10
95.3172346065
 20
553.6519018677
 10
95.1933929185
 20
548.3019258571
 10
95.3172346065
 20
542.9519498465
 10
95.688232542
 20
537.6248834398
 10
96.3047978887
 20
532.3435365898
 10
97.1642875532
 20
527.1305273962
 10
98.2630246738
 20
522.0081768674
 10
99.5963023463
 20
516.9984195125
 10
101.1584115634
 20
512.1227111411
 10
102.9426617036
 20
507.4019264174
 10
104.9414159218
 20
502.8562824917
 10
107.1461116383
 20
498.5052402806
 10
109.5473089675
 20
494.3674374116
 10
112.1347270394
 20
490.4605913651
 10
114.8972849781
 20
486.8014286947
 10
117.8231535899
 20
483.405625422
 10
120.8998035593
 20
480.2877139044
 10
124.1140599607
 20
477.4610455823
 10
127.4521591561
 20
474.9377350998
 10
130.8998068282
 20
472.7285783482
 10
134.4422393898
 20
470.8430375648
 10
138.0642879242
 20
469.2891966295
 10
140.9026937047
 20
468.321507771
  0
INSERT
  5
BC
330
1F
100
AcDbEntity
  8
FORMAT
 62
     7
100
AcDbBlockReference
  2
SW_CENTERMARKSYMBOL_0
 10
123.7454054365
 20
548.3019258571
 30
0.0
  0
LINE
  5
BD
330
1F
100
AcDbEntity
  8
0
  6
Continuous
 62
     7
370
    25
100
AcDbLine
 10
255.7454047212
 20
-174.9905024116
 30
0.0
 11
153.0347274104
 21
-174.9905024116
 31
0.0
  0
LINE
  5
BE
330
1F
100
AcDbEntity
  8
0
  6
Continuous
 62
     7
370
    25
100
AcDbLine
 10
153.0347274104
 20
-374.9905053919
 30
0.0
 11
255.7454047212
 21
-374.9905053919
 31
0.0
  0
LINE
  5
BF
330
1F
100
AcDbEntity
  8
0
  6
Continuous
 62
     7
370
    25
100
AcDbLine
 10
123.7454054365
 20
-374.9905053919
 30
0.0
 11
153.0347274104
 21
-374.9905053919
 31
0.0
  0
LINE
  5
C0
330
1F
100
AcDbEntity
  8
0
  6
Continuous
 62
     7
370
    25
100
AcDbLine
 10
153.0347274104
 20
-174.9905024116
 30
0.0
 11
123.7454054365
 21
-174.9905024116
 31
0.0
  0
LWPOLYLINE
  5
C1
330
1F
100
AcDbEntity
  8
0
  6
Continuous
 62
     7
370
    25
100
AcDbPolyline
 90
      107
 70
   128
 43
0.0
 10
255.7454047212
 20
-374.9905053919
 10
259.9343446503
 20
-374.814880306
 10
264.1085771332
 20
-374.2886159962
 10
268.2534394274
 20
-373.4135602062
 10
272.3543581972
 20
-372.1927974766
 10
276.396938921
 20
-370.6306044405
 10
280.366980792
 20
-368.7324721759
 10
284.2505363235
 20
-366.5050689524
 10
288.033970953
 20
-363.956210429
 10
291.7039928446
 20
-361.0948671048
 10
295.2476975927
 20
-357.9310749119
 10
298.652657629
 20
-354.4759501164
 10
301.906907321
 20
-350.7416297143
 10
304.9990025768
 20
-346.7412267273
 10
307.9180953512
 20
-342.488800401
 10
310.6539336452
 20
-337.9992891496
 10
313.1969062099
 20
-333.2884509509
 10
315.5380723486
 20
-328.3728409951
 10
317.6692215214
 20
-323.2697260027
 10
319.5828584442
 20
-317.9970246201
 10
321.2722626934
 20
-312.5732627158
 10
322.7314887056
 20
-307.0174876993
 10
323.9554402838
 20
-301.3492200916
 10
324.9397960911
 20
-295.5883659815
 10
325.6811139593
 20
-289.7551602145
 10
326.1767712841
 20
-283.87009375
 10
326.4250246296
 20
-277.9538365939
 10
326.4250246296
 20
-272.0271712096
 10
326.1767712841
 20
-266.1109140535
 10
325.6811139593
 20
-260.225847589
 10
324.9397960911
 20
-254.392641822
 10
323.9554402838
 20
-248.6317877119
 10
322.7314887056
 20
-242.9635201042
 10
321.2722626934
 20
-237.4077450877
 10
319.5828584442
 20
-231.9839831834
 10
317.6692215214
 20
-226.7112818008
 10
315.5380723486
 20
-221.6081668084
 10
313.1969062099
 20
-216.6925568526
 10
310.6539336452
 20
-211.9817186539
 10
307.9180953512
 20
-207.4922074025
 10
304.9990025768
 20
-203.2397810762
 10
301.906907321
 20
-199.2393780892
 10
298.652657629
 20
-195.5050576871
 10
295.2476975927
 20
-192.0499328916
 10
291.7039928446
 20
-188.8861406987
 10
288.033970953
 20
-186.0247973745
 10
284.2505363235
 20
-183.4759388511
 10
280.366980792
 20
-181.2485356276
 10
276.396938921
 20
-179.350403363
 10
272.3543581972
 20
-177.7882103269
 10
268.2534394274
 20
-176.5674475973
 10
264.1085771332
 20
-175.6923918073
 10
259.9343446503
 20
-175.1661274975
 10
255.7454047212
 20
-174.9905024116
 10
251.5564647922
 20
-175.1661274975
 10
247.3822323093
 20
-175.6923918073
 10
243.2373774657
 20
-176.5674475973
 10
239.1364512453
 20
-177.7882103269
 10
235.0938705215
 20
-179.350403363
 10
231.1238286505
 20
-181.2485356276
 10
227.240273119
 20
-183.4759388511
 10
223.4568459401
 20
-186.0247973745
 10
219.7868240485
 20
-188.8861406987
 10
216.2431118498
 20
-192.0499328916
 10
212.8381592641
 20
-195.5050576871
 10
209.5839095721
 20
-199.2393780892
 10
206.4918068657
 20
-203.2397810762
 10
203.5727140913
 20
-207.4922074025
 10
200.8368757973
 20
-211.9817186539
 10
198.2939106831
 20
-216.6925568526
 10
195.9527370939
 20
-221.6081668084
 10
193.8215953717
 20
-226.7112818008
 10
191.9079584489
 20
-231.9839831834
 10
190.2185541997
 20
-237.4077450877
 10
188.7593132863
 20
-242.9635201042
 10
187.5353691587
 20
-248.6317877119
 10
186.5510133514
 20
-254.392641822
 10
185.8097029338
 20
-260.225847589
 10
185.314045609
 20
-266.1109140535
 10
185.0657810876
 20
-272.0271712096
 10
185.0657810876
 20
-277.9538365939
 10
185.314045609
 20
-283.87009375
 10
185.8097029338
 20
-289.7551602145
 10
186.5510133514
 20
-295.5883659815
 10
187.5353691587
 20
-301.3492200916
 10
188.7593132863
 20
-307.0174876993
 10
190.2185541997
 20
-312.5732627158
 10
191.9079584489
 20
-317.9970246201
 10
193.8215953717
 20
-323.2697260027
 10
195.9527370939
 20
-328.3728409951
 10
198.2939106831
 20
-333.2884509509
 10
200.8368757973
 20
-337.9992891496
 10
203.5727140913
 20
-342.488800401
 10
206.4918068657
 20
-346.7412267273
 10
209.5839095721
 20
-350.7416297143
 10
212.8381592641
 20
-354.4759501164
 10
216.2431118498
 20
-357.9310749119
 10
219.7868240485
 20
-361.0948671048
 10
223.4568459401
 20
-363.956210429
 10
227.240273119
 20
-366.5050689524
 10
231.1238286505
 20
-368.7324721759
 10
235.0938705215
 20
-370.6306044405
 10
239.1364512453
 20
-372.1927974766
 10
243.2373774657
 20
-373.4135602062
 10
247.3822323093
 20
-374.2886159962
 10
251.5564647922
 20
-374.814880306
 10
255.7454047212
 20
-374.9905053919
  0
LWPOLYLINE
  5
C2
330
1F
100
AcDbEntity
  8
0
  6
Continuous
 62
     7
370
    25
100
AcDbPolyline
 90
       97
 70
   128
 43
0.0
 10
255.7454047212
 20
-356.7905027812
 10
251.9624022255
 20
-356.6153619831
 10
248.1955972919
 20
-356.0906920975
 10
244.4611204276
 20
-355.2187431996
 10
240.774968029
 20
-354.0032331293
 10
237.1529204259
 20
-352.4493921941
 10
233.6104822764
 20
-350.5638514107
 10
230.1628378639
 20
-348.354694659
 10
226.8247393379
 20
-345.8313841765
 10
223.6104843626
 20
-343.0047158544
 10
220.5338341603
 20
-339.8868043368
 10
217.6079613576
 20
-336.4910010641
 10
214.8454052815
 20
-332.8318383937
 10
212.2579900036
 20
-328.9249923473
 10
209.8567870865
 20
-324.7871894782
 10
207.6520932326
 20
-320.4361472671
 10
205.653340877
 20
-315.8905033415
 10
203.8690907369
 20
-311.1697186177
 10
202.3069796572
 20
-306.2940102463
 10
200.9737057099
 20
-301.2842528915
 10
199.8749685893
 20
-296.1619023626
 10
199.0154770622
 20
-290.9488931691
 10
198.3989117155
 20
-285.667546319
 10
198.0279100547
 20
-280.3404799124
 10
197.9040739546
 20
-274.9905039018
 10
198.0279100547
 20
-269.6405278911
 10
198.3989117155
 20
-264.3134614845
 10
199.0154770622
 20
-259.0321146344
 10
199.8749685893
 20
-253.8191054409
 10
200.9737057099
 20
-248.696754912
 10
202.3069796572
 20
-243.6869975572
 10
203.8690907369
 20
-238.8112891858
 10
205.653340877
 20
-234.090504462
 10
207.6520932326
 20
-229.5448605364
 10
209.8567870865
 20
-225.1938183253
 10
212.2579900036
 20
-221.0560154562
 10
214.8454052815
 20
-217.1491694098
 10
217.6079613576
 20
-213.4900067394
 10
220.5338341603
 20
-210.0942034667
 10
223.6104843626
 20
-206.9762919491
 10
226.8247393379
 20
-204.149623627
 10
230.1628378639
 20
-201.6263131445
 10
233.6104822764
 20
-199.4171563928
 10
237.1529204259
 20
-197.5316156094
 10
240.774968029
 20
-195.9777746742
 10
244.4611204276
 20
-194.7622646039
 10
248.1955972919
 20
-193.890315706
 10
251.9624022255
 20
-193.3656458204
 10
255.7454047212
 20
-193.1905050223
 10
259.528407217
 20
-193.3656458204
 10
263.2952121506
 20
-193.890315706
 10
267.0296964655
 20
-194.7622646039
 10
270.7158414135
 20
-195.9777746742
 10
274.3378964672
 20
-197.5316156094
 10
277.8803197155
 20
-199.4171563928
 10
281.3279715786
 20
-201.6263131445
 10
284.6660701046
 20
-204.149623627
 10
287.8803250799
 20
-206.9762919491
 10
290.9569827328
 20
-210.0942034667
 10
293.8828406343
 20
-213.4900067394
 10
296.6454116115
 20
-217.1491694098
 10
299.2328194389
 20
-221.0560154562
 10
301.634022356
 20
-225.1938183253
 10
303.8387236605
 20
-229.5448605364
 10
305.837476016
 20
-234.090504462
 10
307.6217261562
 20
-238.8112891858
 10
309.1838297853
 20
-243.6869975572
 10
310.5171111832
 20
-248.696754912
 10
311.6158483038
 20
-253.8191054409
 10
312.4753323803
 20
-259.0321146344
 10
313.091897727
 20
-264.3134614845
 10
313.4628919372
 20
-269.6405278911
 10
313.5867354879
 20
-274.9905039018
 10
313.4628919372
 20
-280.3404799124
 10
313.091897727
 20
-285.667546319
 10
312.4753323803
 20
-290.9488931691
 10
311.6158483038
 20
-296.1619023626
 10
310.5171111832
 20
-301.2842528915
 10
309.1838297853
 20
-306.2940102463
 10
307.6217261562
 20
-311.1697186177
 10
305.837476016
 20
-315.8905033415
 10
303.8387236605
 20
-320.4361472671
 10
301.634022356
 20
-324.7871894782
 10
299.2328194389
 20
-328.9249923473
 10
296.6454116115
 20
-332.8318383937
 10
293.8828406343
 20
-336.4910010641
 10
290.9569827328
 20
-339.8868043368
 10
287.8803250799
 20
-343.0047158544
 10
284.6660701046
 20
-345.8313841765
 10
281.3279715786
 20
-348.354694659
 10
277.8803197155
 20
-350.5638514107
 10
274.3378964672
 20
-352.4493921941
 10
270.7158414135
 20
-354.0032331293
 10
267.0296964655
 20
-355.2187431996
 10
263.2952121506
 20
-356.0906920975
 10
259.528407217
 20
-356.6153619831
 10
255.7454047212
 20
-356.7905027812
  0
ARC
  5
C3
330
1F
100
AcDbEntity
  8
0
  6
Continuous
 62
     7
370
    25
100
AcDbCircle
 10
123.7454054365
 20
-274.9905039018
 30
0.0
 40
100.0
100
AcDbArc
 50
90.0
 51
270.0
  0
ARC
  5
C4
330
1F
100
AcDbEntity
  8
0
  6
Continuous
 62
     7
370
    25
100
AcDbCircle
 10
123.7454054365
 20
-274.9905039018
 30
0.0
 40
81.8
100
AcDbArc
 50
340.9578560574
 51
19.0421439426
  0
LWPOLYLINE
  5
C5
330
1F
100
AcDbEntity
  8
0
  6
Continuous
 62
     1
370
    25
100
AcDbPolyline
 90
       55
 70
   128
 43
0.0
 10
153.0347274104
 20
-174.9905024116
 10
150.9393354366
 20
-175.0344235843
 10
146.7559089372
 20
-175.3855172937
 10
142.594538019
 20
-176.0864828174
 10
138.4698397899
 20
-177.1348540132
 10
134.3963000411
 20
-178.5269428437
 10
130.388228544
 20
-180.2578691786
 10
126.459704102
 20
-182.3215458935
 10
122.6245251903
 20
-184.7107235735
 10
118.89616339
 20
-187.4170128649
 10
115.2877140278
 20
-190.4309068268
 10
111.8118533352
 20
-193.7418181842
 10
108.4807890887
 20
-197.3381165808
 10
105.3062224248
 20
-201.2071732824
 10
102.2993022064
 20
-205.3353984301
 10
99.4705942879
 20
-209.7082931941
 10
96.8300302932
 20
-214.3104907518
 10
94.3868880579
 20
-219.1258270686
 10
92.1497506509
 20
-224.1373930519
 10
90.126470984
 20
-229.3275792544
 10
88.3241606364
 20
-234.678161556
 10
86.7491488764
 20
-240.1703421419
 10
85.4069640348
 20
-245.7848277335
 10
84.3023260543
 20
-251.5018985068
 10
83.4391166875
 20
-257.3014770096
 10
82.8203608701
 20
-263.1631868353
 10
82.4482378969
 20
-269.0664410984
 10
82.3240478942
 20
-274.9905039018
 10
82.4482378969
 20
-280.9145667051
 10
82.8203608701
 20
-286.8178209682
 10
83.4391166875
 20
-292.6795307939
 10
84.3023260543
 20
-298.4791092967
 10
85.4069640348
 20
-304.19618007
 10
86.7491488764
 20
-309.8106656616
 10
88.3241606364
 20
-315.3028462475
 10
90.126470984
 20
-320.6534285491
 10
92.1497506509
 20
-325.8436147516
 10
94.3868880579
 20
-330.8551807349
 10
96.8300302932
 20
-335.6705170517
 10
99.4705942879
 20
-340.2727146094
 10
102.2993022064
 20
-344.6456093734
 10
105.3062224248
 20
-348.7738345211
 10
108.4807890887
 20
-352.6428912227
 10
111.8118533352
 20
-356.2391896193
 10
115.2877140278
 20
-359.5501009767
 10
118.89616339
 20
-362.5639949386
 10
122.6245251903
 20
-365.27028423
 10
126.459704102
 20
-367.65946191
 10
130.388228544
 20
-369.7231386249
 10
134.3963000411
 20
-371.4540649598
 10
138.4698397899
 20
-372.8461537903
 10
142.594538019
 20
-373.8945249861
 10
146.7559089372
 20
-374.5954905098
 10
150.9393354366
 20
-374.9465842192
 10
153.0347274104
 20
-374.9905053919
  0
ARC
  5
C6
330
1F
100
AcDbEntity
  8
0
  6
Continuous
 62
     1
370
    25
100
AcDbCircle
 10
99.093441848
 20
-274.9905039018
 30
0.0
 40
111.8207366505885
100
AcDbArc
 50
340.3314784605
 51
19.6685215395
  0
INSERT
  5
D2
330
1F
100
AcDbEntity
  8
FORMAT
 62
     7
100
AcDbBlockReference
  2
SW_CENTERMARKSYMBOL_1
 10
123.7454054365
 20
-274.9905039018
 30
0.0
  0
LINE
  5
D3
330
1F
100
AcDbEntity
  8
0
  6
Continuous
 62
     7
370
    25
100
AcDbLine
 10
404.9991492696
 20
-353.3834524601
 30
0.0
 11
404.9991492696
 21
-465.7220239307
 31
0.0
  0
LINE
  5
D4
330
1F
100
AcDbEntity
  8
0
  6
Continuous
 62
     7
370
    25
100
AcDbLine
 10
604.9991584908
 20
-465.7220239307
 30
0.0
 11
604.9991584908
 21
-353.3834524601
 31
0.0
  0
LINE
  5
D5
330
1F
100
AcDbEntity
  8
0
  6
Continuous
 62
     7
370
    25
100
AcDbLine
 10
511.734704961
 20
-107.8948846941
 30
0.0
 11
439.1072905099
 21
-233.6892721463
 31
0.0
  0
LINE
  5
D6
330
1F
100
AcDbEntity
  8
0
  6
Continuous
 62
     7
370
    25
100
AcDbLine
 10
612.3123742773
 20
-333.6892779802
 30
0.0
 11
684.9397867527
 21
-207.8949038359
 31
0.0
  0
SPLINE
  5
D7
330
1F
100
AcDbEntity
  8
0
  6
Continuous
 62
     7
370
    25
100
AcDbSpline
210
0.0
220
0.0
230
1.0
 70
     8
 71
     3
 72
    24
 73
    20
 74
     0
 42
0.000000001
 43
0.00000001
 40
0.0
 40
0.0
 40
0.0
 40
0.0
 40
0.0362326152988548
 40
0.0985336904730674
 40
0.1609091327239009
 40
0.2233972761170251
 40
0.2860386065583821
 40
0.3488710781622668
 40
0.4119285200593206
 40
0.4752389438450295
 40
0.5388215507516617
 40
0.6026845190688365
 40
0.6668213437546809
 40
0.7312078660393951
 40
0.7957990381235472
 40
0.8605274483113508
 40
0.9252694451388265
 40
0.9851732352404875
 40
1.0
 40
1.0
 40
1.0
 40
1.0
 10
439.1072905098643
 20
-233.6892721463442
 30
0.0
 10
438.3368329967618
 20
-235.0396596010347
 30
0.0
 10
436.2415930729384
 20
-238.7120044864835
 30
0.0
 10
432.9889172101772
 20
-244.8014749427213
 30
0.0
 10
429.4086850050475
 20
-251.978899512481
 30
0.0
 10
426.0457027918224
 20
-259.2615085027476
 30
0.0
 10
422.9015293297145
 20
-266.6415083618243
 30
0.0
 10
419.9829578684269
 20
-274.1140028021568
 30
0.0
 10
417.2962544217165
 20
-281.6731571099455
 30
0.0
 10
414.8487324712569
 20
-289.3128473570359
 30
0.0
 10
412.6483944703418
 20
-297.026164641502
 30
0.0
 10
410.7039715277704
 20
-304.805046415207
 30
0.0
 10
409.0248793365038
 20
-312.639927521306
 30
0.0
 10
407.620873213532
 20
-320.5192511713755
 30
0.0
 10
406.5022375780904
 20
-328.429128220941
 30
0.0
 10
405.6780025281798
 20
-336.3517803911395
 30
0.0
 10
405.1728584354815
 20
-344.073060866575
 30
0.0
 10
405.0097943828574
 20
-349.7477738127787
 30
0.0
 10
405.0009116335164
 20
-352.7815435119952
 30
0.0
 10
404.9991492695792
 20
-353.3834524600604
 30
0.0
  0
SPLINE
  5
D8
330
1F
100
AcDbEntity
  8
0
  6
Continuous
 62
     7
370
    25
100
AcDbSpline
210
0.0
220
0.0
230
1.0
 70
     8
 71
     3
 72
    21
 73
    17
 74
     0
 42
0.000000001
 43
0.00000001
 40
0.0
 40
0.0
 40
0.0
 40
0.0
 40
0.0819630370874362
 40
0.1613259100594543
 40
0.2387672219088332
 40
0.3148999622041873
 40
0.3902621900919556
 40
0.4653050187801416
 40
0.540388654062034
 40
0.6157531130069224
 40
0.6915255938370832
 40
0.7678131213836136
 40
0.8446407388109066
 40
0.9219642532598502
 40
0.999686118351861
 40
1.0
 40
1.0
 40
1.0
 40
1.0
 10
604.9986158501049
 20
-353.4677652145649
 30
0.0
 10
605.0016229928559
 20
-353.4101405858011
 30
0.0
 10
605.0075418809085
 20
-353.2967193900095
 30
0.0
 10
605.0617229333759
 20
-352.7577387150262
 30
0.0
 10
605.1758286786886
 20
-351.9661599679837
 30
0.0
 10
605.3694246242969
 20
-350.9129150642963
 30
0.0
 10
605.6579798403558
 20
-349.621968114676
 30
0.0
 10
606.054968915368
 20
-348.1112642672886
 30
0.0
 10
606.5709633392166
 20
-346.4037058254769
 30
0.0
 10
607.2132645749739
 20
-344.5253603845842
 30
0.0
 10
607.985136366593
 20
-342.5054964495218
 30
0.0
 10
608.8868394822914
 20
-340.3769669228645
 30
0.0
 10
609.9107339382266
 20
-338.171860730125
 30
0.0
 10
611.0585548608759
 20
-335.9353444679196
 30
0.0
 10
611.8694070413492
 20
-334.4268943739291
 30
0.0
 10
612.3104160230596
 20
-333.69290255958
 30
0.0
 10
612.3121898848063
 20
-333.6899502387523
 30
0.0
  0
LWPOLYLINE
  5
D9
330
1F
100
AcDbEntity
  8
0
  6
Continuous
 62
     7
370
    25
100
AcDbPolyline
 90
      107
 70
   128
 43
0.0
 10
434.2884747079
 20
-424.9016177313
 10
438.6016053774
 20
-422.5550821398
 10
443.1479615602
 20
-420.3601730323
 10
447.9115742102
 20
-418.3246006295
 10
452.8757051019
 20
-416.4555094596
 10
458.0229219036
 20
-414.7594715155
 10
463.3351449342
 20
-413.2424410142
 10
468.7937149937
 20
-411.9097456532
 10
474.3794631687
 20
-410.7660706434
 10
480.0727542959
 20
-409.8154275349
 10
485.853605501
 20
-409.0611587793
 10
491.701704637
 20
-408.5059149193
 10
497.5965130179
 20
-408.1516439444
 10
503.5173286385
 20
-407.9995912903
 10
509.4433441265
 20
-408.0502907151
 10
515.3537442071
 20
-408.3035627788
 10
521.2277768259
 20
-408.7585224465
 10
527.044805832
 20
-409.4135669229
 10
532.7843979065
 20
-410.2663954212
 10
538.4263963192
 20
-411.314015246
 10
543.9509788802
 20
-412.5527448343
 10
549.3387448684
 20
-413.9782335247
 10
554.5707650805
 20
-415.5854722018
 10
559.6286595392
 20
-417.3688199083
 10
564.4946692749
 20
-419.3220087871
 10
569.1516971549
 20
-421.4381798174
 10
573.583383452
 20
-423.7099021081
 10
577.774168735
 20
-426.129190956
 10
581.7093335465
 20
-428.6875489991
 10
585.3750464762
 20
-431.3759939691
 10
588.7584354483
 20
-434.1850815964
 10
591.8476190029
 20
-437.1049419164
 10
594.6317397168
 20
-440.1253228943
 10
597.1010261065
 20
-443.2356139949
 10
599.2468011895
 20
-446.4248876217
 10
601.0615285826
 20
-449.6819439769
 10
602.5388309406
 20
-452.995339954
 10
603.6735242013
 20
-456.35343932
 10
604.4616228532
 20
-459.7444461712
 10
604.9003504728
 20
-463.1564475113
 10
604.9881739684
 20
-466.5774634342
 10
604.724782507
 20
-469.9954775375
 10
604.1111006851
 20
-473.3984779808
 10
603.1492858944
 20
-476.7745137511
 10
601.8427125172
 20
-480.1117281172
 10
600.1959719256
 20
-483.3983951263
 10
598.214854043
 20
-486.6229789105
 10
595.906307831
 20
-489.7741443314
 10
593.2784491922
 20
-492.8408254108
 10
590.3405069692
 20
-495.8122504219
 10
587.1027952862
 20
-498.6779821868
 10
583.5766984021
 20
-501.4279572348
 10
579.7745923438
 20
-504.0525127939
 10
575.7098330525
 20
-506.5424301301
 10
571.3967023829
 20
-508.8889657215
 10
566.8503462002
 20
-511.083874829
 10
562.0867335501
 20
-513.1194472318
 10
557.1226026584
 20
-514.9885384017
 10
551.9753858568
 20
-516.6845763458
 10
546.6631628262
 20
-518.2016068471
 10
541.2045927666
 20
-519.5343022081
 10
535.6188445917
 20
-520.6779772179
 10
529.9255534644
 20
-521.6286203264
 10
524.1447022594
 20
-522.3828890821
 10
518.2966031234
 20
-522.938132942
 10
512.4017947425
 20
-523.2924039169
 10
506.4809791219
 20
-523.4444565711
 10
500.5549636339
 20
-523.3937571462
 10
494.6445635532
 20
-523.1404850825
 10
488.7705309345
 20
-522.6855254148
 10
482.9535019284
 20
-522.0304809384
 10
477.2139098538
 20
-521.1776524401
 10
471.5719114412
 20
-520.1300326153
 10
466.0473288802
 20
-518.891303027
 10
460.6595628919
 20
-517.4658143366
 10
455.4275426799
 20
-515.8585756595
 10
450.3696482211
 20
-514.075227953
 10
445.5036384855
 20
-512.1220390742
 10
440.8466106055
 20
-510.0058680439
 10
436.4149243084
 20
-507.7341457532
 10
432.2241390253
 20
-505.3148569053
 10
428.2889742138
 20
-502.7564988622
 10
424.6232612842
 20
-500.0680538922
 10
421.2398723121
 20
-497.2589662649
 10
418.1506887574
 20
-494.3391059449
 10
415.3665680435
 20
-491.3187249671
 10
412.8972816539
 20
-488.2084338665
 10
410.7515065708
 20
-485.0191602396
 10
408.9367791778
 20
-481.7621038844
 10
407.4594768198
 20
-478.4487079074
 10
406.3247835591
 20
-475.0906085413
 10
405.5366849071
 20
-471.6996016901
 10
405.0979572876
 20
-468.28760035
 10
405.010133792
 20
-464.8665844272
 10
405.2735252534
 20
-461.4485703239
 10
405.8872070753
 20
-458.0455698805
 10
406.8490218659
 20
-454.6695341102
 10
408.1555952432
 20
-451.3323197441
 10
409.8023358348
 20
-448.045652735
 10
411.7834537174
 20
-444.8210689509
 10
414.0919999294
 20
-441.6699035299
 10
416.7198585682
 20
-438.6032224505
 10
419.6578007912
 20
-435.6317974395
 10
422.8955124741
 20
-432.7660656745
 10
426.4216093582
 20
-430.0160906265
 10
430.2237154165
 20
-427.3915350674
 10
434.2884747079
 20
-424.9016177313
  0
LWPOLYLINE
  5
DA
330
1F
100
AcDbEntity
  8
0
  6
Continuous
 62
     7
370
    25
100
AcDbPolyline
 90
       97
 70
   128
 43
0.0
 10
447.1578199715
 20
-432.3309326145
 10
443.4986589012
 20
-434.5863077052
 10
440.1028517553
 20
-436.9750101939
 10
436.9849365623
 20
-439.4868104754
 10
434.1582778244
 20
-442.1109581124
 10
431.6349604921
 20
-444.8362065461
 10
429.4258057685
 20
-447.6508952128
 10
427.5402690358
 20
-450.5429658916
 10
425.9864200983
 20
-453.5000349362
 10
424.7709207923
 20
-456.5094426972
 10
423.8989657169
 20
-459.5582999027
 10
423.3742927707
 20
-462.6335484854
 10
423.1991541759
 20
-465.7220239307
 10
423.3742927707
 20
-468.8104993759
 10
423.8989657169
 20
-471.8857479587
 10
424.7709207923
 20
-474.9346051641
 10
425.9864200983
 20
-477.9440129251
 10
427.5402690358
 20
-480.9010819697
 10
429.4258057685
 20
-483.7931526485
 10
431.6349604921
 20
-486.6078413153
 10
434.1582778244
 20
-489.3330897489
 10
436.9849365623
 20
-491.9572373859
 10
440.1028517553
 20
-494.4690376675
 10
443.4986589012
 20
-496.8577401561
 10
447.1578199715
 20
-499.1131152468
 10
451.0646675338
 20
-501.2255039692
 10
455.2024699477
 20
-503.1858617072
 10
459.5535070977
 20
-504.9857958354
 10
464.0991566622
 20
-506.617591191
 10
468.8199369189
 20
-508.0742712807
 10
473.6956489908
 20
-509.3495891567
 10
478.7054051631
 20
-510.4380863432
 10
483.827754007
 20
-511.3351042412
 10
489.0407659904
 20
-512.0367970546
 10
494.3221138203
 20
-512.5401660051
 10
499.64917781
 20
-512.8430532499
 10
504.9991538802
 20
-512.9441586086
 10
510.3491299504
 20
-512.8430532499
 10
515.67619394
 20
-512.5401660051
 10
520.9575417699
 20
-512.0367970546
 10
526.1705537533
 20
-511.3351042412
 10
531.2929025973
 20
-510.4380863432
 10
536.3026587695
 20
-509.3495891567
 10
541.1783708414
 20
-508.0742712807
 10
545.8991510982
 20
-506.617591191
 10
550.4448006626
 20
-504.9857958354
 10
554.7958378126
 20
-503.1858617072
 10
558.9336402266
 20
-501.2255039692
 10
562.8404877889
 20
-499.1131152468
 10
566.4996488592
 20
-496.8577401561
 10
569.8954560051
 20
-494.4690376675
 10
573.0133711981
 20
-491.9572373859
 10
575.8400299359
 20
-489.3330897489
 10
578.3633472683
 20
-486.6078413153
 10
580.5725019918
 20
-483.7931526485
 10
582.4580387246
 20
-480.9010819697
 10
584.011887662
 20
-477.9440129251
 10
585.227386968
 20
-474.9346051641
 10
586.0993420434
 20
-471.8857479587
 10
586.6240149897
 20
-468.8104993759
 10
586.7991535845
 20
-465.7220239307
 10
586.6240149897
 20
-462.6335484854
 10
586.0993420434
 20
-459.5582999027
 10
585.227386968
 20
-456.5094426972
 10
584.011887662
 20
-453.5000349362
 10
582.4580387246
 20
-450.5429658916
 10
580.5725019918
 20
-447.6508952128
 10
578.3633472683
 20
-444.8362065461
 10
575.8400299359
 20
-442.1109581124
 10
573.0133711981
 20
-439.4868104754
 10
569.8954560051
 20
-436.9750101939
 10
566.4996488592
 20
-434.5863077052
 10
562.8404877889
 20
-432.3309326145
 10
558.9336402266
 20
-430.2185438921
 10
554.7958378126
 20
-428.2581861542
 10
550.4448006626
 20
-426.4582520259
 10
545.8991510982
 20
-424.8264566703
 10
541.1783708414
 20
-423.3697765806
 10
536.3026587695
 20
-422.0944587046
 10
531.2929025973
 20
-421.0059615181
 10
526.1705537533
 20
-420.1089436201
 10
520.9575417699
 20
-419.4072508067
 10
515.67619394
 20
-418.9038818562
 10
510.3491299504
 20
-418.6009946115
 10
504.9991538802
 20
-418.4998892528
 10
499.64917781
 20
-418.6009946115
 10
494.3221138203
 20
-418.9038818562
 10
489.0407659904
 20
-419.4072508067
 10
483.827754007
 20
-420.1089436201
 10
478.7054051631
 20
-421.0059615181
 10
473.6956489908
 20
-422.0944587046
 10
468.8199369189
 20
-423.3697765806
 10
464.0991566622
 20
-424.8264566703
 10
459.5535070977
 20
-426.4582520259
 10
455.2024699477
 20
-428.2581861542
 10
451.0646675338
 20
-430.2185438921
 10
447.1578199715
 20
-432.3309326145
  0
LWPOLYLINE
  5
DB
330
1F
100
AcDbEntity
  8
0
  6
Continuous
 62
     7
370
    25
100
AcDbPolyline
 90
      107
 70
   128
 43
0.0
 10
527.6265693187
 20
-117.0744987123
 10
530.7127828376
 20
-118.8566755588
 10
534.0365359948
 20
-120.7759913354
 10
537.5861541131
 20
-122.8257044486
 10
541.3491511887
 20
-124.9985806131
 10
545.3123247213
 20
-127.2869962776
 10
549.4617504458
 20
-129.6829477528
 10
553.782850821
 20
-132.1779690828
 10
558.2604582498
 20
-134.763338893
 10
562.8788308843
 20
-137.4299435095
 10
567.6217474561
 20
-140.1684655505
 10
572.4725599602
 20
-142.9692196737
 10
577.4142252645
 20
-145.8224020029
 10
582.4293788676
 20
-148.7180110408
 10
587.5004086551
 20
-151.6458537559
 10
592.6095023151
 20
-154.5956216243
 10
597.7387210953
 20
-157.5569940513
 10
602.8700366813
 20
-160.5195623262
 10
607.9854339293
 20
-163.4728889362
 10
613.066942477
 20
-166.4066353193
 10
618.0967104998
 20
-169.3104827776
 10
623.0570652973
 20
-172.1742404566
 10
627.930600221
 20
-174.9878225335
 10
632.7001838942
 20
-177.7413752038
 10
637.3490741397
 20
-180.4252207903
 10
641.8609272
 20
-183.0299238946
 10
646.2198943784
 20
-185.5463471946
 10
650.4106796614
 20
-187.9656360425
 10
654.4185635917
 20
-190.2792930763
 10
658.229451341
 20
-192.4792059724
 10
661.8299598032
 20
-194.5576368919
 10
665.2074541435
 20
-196.5072922481
 10
668.3500601457
 20
-198.3213298261
 10
671.2467577261
 20
-199.9933519381
 10
673.8873473474
 20
-201.5175076951
 10
676.2625646054
 20
-202.8884374919
 10
678.3640617899
 20
-204.1013353573
 10
680.1844684707
 20
-205.1519109248
 10
681.7173809612
 20
-206.0365050167
 10
682.9574150014
 20
-206.7520105521
 10
683.9002241975
 20
-207.2958831847
 10
684.5424947536
 20
-207.6662355959
 10
684.8819560082
 20
-207.8617827352
 10
684.9174278496
 20
-207.8818205223
 10
684.6487891056
 20
-207.7262440918
 10
684.0769670067
 20
-207.3956633759
 10
683.2039898703
 20
-206.89120234
 10
682.0329133426
 20
-206.21465107
 10
680.5678520099
 20
-205.368350173
 10
678.8139530559
 20
-204.3553215753
 10
676.777375189
 20
-203.1790860059
 10
674.4652728367
 20
-201.8437755379
 10
671.885769804
 20
-200.3541062129
 10
669.0479276634
 20
-198.7153111111
 10
665.9617141444
 20
-196.9331099298
 10
662.6379609873
 20
-195.0137941533
 10
659.0883481374
 20
-192.9641023335
 10
655.3253457934
 20
-190.7912292103
 10
651.3621722608
 20
-188.502789211
 10
647.2127465363
 20
-186.1068620706
 10
642.8916461611
 20
-183.6118164058
 10
638.4140440006
 20
-181.0264435543
 10
633.7956713661
 20
-178.3598389378
 10
629.0527495259
 20
-175.621344273
 10
624.2019422903
 20
-172.8205627736
 10
619.2602769859
 20
-169.9673804444
 10
614.2451181145
 20
-167.0717744479
 10
609.174088327
 20
-164.1439560675
 10
604.064994667
 20
-161.1941638644
 10
598.9357811551
 20
-158.232788396
 10
593.8044603008
 20
-155.2702474973
 10
588.6890683211
 20
-152.3168935111
 10
583.6075597734
 20
-149.3831471279
 10
578.5777917506
 20
-146.4792996697
 10
573.6174264164
 20
-143.6155480734
 10
568.743896761
 20
-140.8019751225
 10
563.9743130879
 20
-138.0484102848
 10
559.3254281107
 20
-135.3645738243
 10
554.8135750504
 20
-132.7598585527
 10
550.4545999695
 20
-130.2434519821
 10
546.2638146865
 20
-127.8241631342
 10
542.2559386587
 20
-125.510489371
 10
538.4450509094
 20
-123.3105886423
 10
534.8445371788
 20
-121.2321485967
 10
531.4670428386
 20
-119.2825054079
 10
528.324431568
 20
-117.4684587039
 10
525.4277445243
 20
-115.7964305092
 10
522.787154903
 20
-114.2722747522
 10
520.4119376451
 20
-112.9013449554
 10
518.3104351922
 20
-111.6884744662
 10
516.4900337797
 20
-110.6378715224
 10
514.9571160209
 20
-109.753280472
 10
513.7170819807
 20
-109.0377992713
 10
512.7742727846
 20
-108.493902304
 10
512.1320074968
 20
-108.1235468514
 10
511.7925462422
 20
-107.9279997121
 10
511.7570691325
 20
-107.9079893011
 10
512.0257131449
 20
-108.0635383555
 10
512.5975352437
 20
-108.3941190714
 10
513.4705071118
 20
-108.8985831486
 10
514.6415836395
 20
-109.5751587534
 10
516.1066449722
 20
-110.4214353156
 10
517.8605439261
 20
-111.4344882481
 10
519.8971270614
 20
-112.6107207762
 10
522.2092241454
 20
-113.9460099507
 10
524.7887271781
 20
-115.4356792757
 10
527.6265693187
 20
-117.0744987123
  0
LWPOLYLINE
  5
DC
330
1F
100
AcDbEntity
  8
0
  6
Continuous
 62
     7
370
    25
100
AcDbPolyline
 90
       97
 70
   128
 43
0.0
 10
540.4959145823
 20
-124.5038135956
 10
537.9447711103
 20
-123.0305556454
 10
535.6522354324
 20
-121.7066031137
 10
533.628122496
 20
-120.537618106
 10
531.8811145518
 20
-119.5285966506
 10
530.418671592
 20
-118.6838595706
 10
529.2470682288
 20
-118.0070494312
 10
528.3713252053
 20
-117.5010301585
 10
527.7951830545
 20
-117.1679874086
 10
527.5211179037
 20
-117.0093586003
 10
527.5502940596
 20
-117.0257751138
 10
527.8825850816
 20
-117.2172143741
 10
528.5165816845
 20
-117.5828462311
 10
529.4495601282
 20
-118.1211059558
 10
530.6775217305
 20
-118.8296744599
 10
532.1952192087
 20
-119.7055360854
 10
533.9961435088
 20
-120.7449223197
 10
536.0725870261
 20
-121.9433787096
 10
538.4156541411
 20
-123.2958135226
 10
541.0153204896
 20
-124.7963737844
 10
543.8604448154
 20
-126.438695462
 10
546.9388466794
 20
-128.2156988926
 10
550.2373453132
 20
-130.1198119714
 10
553.7418123029
 20
-132.1428423863
 10
557.4372512731
 20
-134.2761635452
 10
561.3078209355
 20
-136.5106061995
 10
565.3369635056
 20
-138.8366360111
 10
569.5074172149
 20
-141.2442573421
 10
573.8013236532
 20
-143.7231969041
 10
578.2002969165
 20
-146.2628037498
 10
582.6854973634
 20
-148.8522500308
 10
587.2377231534
 20
-151.4803830831
 10
591.8374774175
 20
-154.1360136359
 10
596.4650644068
 20
-156.8077279759
 10
601.1006698339
 20
-159.4840925064
 10
605.7244451676
 20
-162.1536598298
 10
610.3165813888
 20
-164.804980909
 10
614.8574222613
 20
-167.4267191386
 10
619.3275222827
 20
-170.0076412162
 10
623.7077388813
 20
-172.5367129577
 10
627.9793167096
 20
-175.0030567136
 10
632.1239587668
 20
-177.3961506101
 10
636.1239212298
 20
-179.7057433751
 10
639.9620819413
 20
-181.9219243052
 10
643.6219878255
 20
-184.0352297292
 10
647.0879865963
 20
-186.0366034661
 10
650.3452214898
 20
-187.9174546271
 10
653.3797524357
 20
-189.6697519093
 10
656.1785823997
 20
-191.2859962278
 10
658.7297258717
 20
-192.7592298433
 10
661.0222615497
 20
-194.0831823749
 10
663.0463797545
 20
-195.2521643412
 10
664.7933824303
 20
-196.2611888381
 10
666.2558306584
 20
-197.1059228766
 10
667.427423485
 20
-197.7827390988
 10
668.3031717768
 20
-198.2887553301
 10
668.8793139275
 20
-198.6217980801
 10
669.1533790783
 20
-198.7804512232
 10
669.1242081908
 20
-198.7640073335
 10
668.7919066321
 20
-198.5725741559
 10
668.1579205659
 20
-198.2069362162
 10
667.2249368538
 20
-197.6686795328
 10
665.9969752516
 20
-196.9601110287
 10
664.4792830418
 20
-196.0842463618
 10
662.6783587416
 20
-195.0448601275
 10
660.6019152244
 20
-193.8464037377
 10
658.2588428409
 20
-192.4939963009
 10
655.6591817608
 20
-190.9934086629
 10
652.814057435
 20
-189.3510869853
 10
649.7356503027
 20
-187.574086596
 10
646.4371516689
 20
-185.669997852
 10
642.9326794108
 20
-183.6469461437
 10
639.237245709
 20
-181.5136462782
 10
635.3666707782
 20
-179.2791823305
 10
631.3375334764
 20
-176.9531738123
 10
627.1670797672
 20
-174.5455281465
 10
622.8731785973
 20
-172.0665855432
 10
618.474205334
 20
-169.5269786974
 10
613.9889996186
 20
-166.9375597927
 10
609.4367790971
 20
-164.3093993642
 10
604.8370248329
 20
-161.6537688114
 10
600.2094378437
 20
-158.9820544713
 10
595.5738271482
 20
-156.3056929822
 10
590.9500518145
 20
-153.6361256589
 10
586.3579208616
 20
-150.9848015383
 10
581.8170694524
 20
-148.3630693914
 10
577.3469799677
 20
-145.782141231
 10
572.9667581007
 20
-143.2530968658
 10
568.6951802725
 20
-140.7867287751
 10
564.5505382153
 20
-138.3936348786
 10
560.5505704839
 20
-136.0840451549
 10
556.7124203091
 20
-133.867858142
 10
553.0525091566
 20
-131.7545557594
 10
549.5865156541
 20
-129.7531789812
 10
546.3292754923
 20
-127.8723308616
 10
543.2947445463
 20
-126.1200335793
 10
540.4959145823
 20
-124.5038135956
  0
LWPOLYLINE
  5
DD
330
1F
100
AcDbEntity
  8
0
  6
Continuous
 62
     1
370
    25
100
AcDbPolyline
 90
       15
 70
   128
 43
0.0
 10
575.7098330525
 20
-312.5630462607
 10
579.7745923438
 20
-315.0529635968
 10
583.5766984021
 20
-317.6775191559
 10
587.1027952862
 20
-320.4274942039
 10
590.3405069692
 20
-323.2932259689
 10
593.2784491922
 20
-326.2646509799
 10
595.906307831
 20
-329.3313320593
 10
598.214854043
 20
-332.4824974802
 10
600.1959719256
 20
-335.7070812644
 10
601.8427125172
 20
-338.9937482735
 10
603.1492858944
 20
-342.3309626396
 10
604.1111006851
 20
-345.7069984099
 10
604.724782507
 20
-349.1099988533
 10
604.9881739684
 20
-352.5280129566
 10
604.9991584908
 20
-353.3834524601
  0
LWPOLYLINE
  5
DE
330
1F
100
AcDbEntity
  8
0
  6
Continuous
 62
     1
370
    25
100
AcDbPolyline
 90
       41
 70
   128
 43
0.0
 10
404.9991492696
 20
-353.3834524601
 10
405.0979572876
 20
-350.8178760407
 10
405.5366849071
 20
-347.4058747006
 10
406.3247835591
 20
-344.0148678494
 10
407.4594768198
 20
-340.6567684834
 10
408.9367791778
 20
-337.3433725063
 10
410.7515065708
 20
-334.0863161511
 10
412.8972816539
 20
-330.8970425243
 10
415.3665680435
 20
-327.7867514237
 10
418.1506887574
 20
-324.7663704458
 10
421.2398723121
 20
-321.8465101258
 10
424.6232612842
 20
-319.0374224985
 10
428.2889742138
 20
-316.3489775285
 10
432.2241390253
 20
-313.7906194854
 10
436.4149243084
 20
-311.3713306375
 10
440.8466106055
 20
-309.0996083468
 10
445.5036384855
 20
-306.9834373165
 10
450.3696482211
 20
-305.0302484377
 10
455.4275426799
 20
-303.2469007312
 10
460.6595628919
 20
-301.6396620541
 10
466.0473288802
 20
-300.2141733637
 10
471.5719114412
 20
-298.9754437754
 10
477.2139098538
 20
-297.9278239506
 10
482.9535019284
 20
-297.0749954523
 10
488.7705309345
 20
-296.4199509759
 10
494.6445635532
 20
-295.9649913082
 10
500.5549636339
 20
-295.7117192445
 10
506.4809791219
 20
-295.6610198197
 10
512.4017947425
 20
-295.8130724738
 10
518.2966031234
 20
-296.1673434487
 10
524.1447022594
 20
-296.7225873087
 10
529.9255534644
 20
-297.4768560643
 10
535.6188445917
 20
-298.4274991728
 10
541.2045927666
 20
-299.5711741826
 10
546.6631628262
 20
-300.9038695436
 10
551.9753858568
 20
-302.4209000449
 10
557.1226026584
 20
-304.116937989
 10
562.0867335501
 20
-305.9860291589
 10
566.8503462002
 20
-308.0216015617
 10
571.3967023829
 20
-310.2165106692
 10
575.7098330525
 20
-312.5630462607
  0
LWPOLYLINE
  5
DF
330
1F
100
AcDbEntity
  8
0
  6
Continuous
 62
     1
370
    25
100
AcDbPolyline
 90
       18
 70
   128
 43
0.0
 10
575.7098330525
 20
-312.5630462607
 10
579.8109650741
 20
-314.9305507354
 10
583.7220628826
 20
-317.1883422272
 10
587.4293912153
 20
-319.3284552094
 10
590.9199313058
 20
-321.3433743969
 10
594.1814138114
 20
-323.2260537524
 10
597.202386643
 20
-324.9698400549
 10
599.972245917
 20
-326.5686367743
 10
602.4812478088
 20
-328.0168196521
 10
604.7205941639
 20
-329.3092922139
 10
606.6824087899
 20
-330.4415268221
 10
608.3598033112
 20
-331.4095479462
 10
609.7468903401
 20
-332.2099336736
 10
610.8387940128
 20
-332.8399069604
 10
611.631676332
 20
-333.2972291619
 10
612.1227556058
 20
-333.5802958436
 10
612.3103038133
 20
-333.6881230866
 10
612.3123742773
 20
-333.6892779802
  0
LWPOLYLINE
  5
E0
330
1F
100
AcDbEntity
  8
0
  6
Continuous
 62
     1
370
    25
100
AcDbPolyline
 90
       38
 70
   128
 43
0.0
 10
439.1072905099
 20
-233.6892721463
 10
439.2259984258
 20
-233.7582079664
 10
439.6464125811
 20
-234.0013874942
 10
440.3691269831
 20
-234.4190948707
 10
441.3916042596
 20
-235.0098734505
 10
442.7102507333
 20
-235.7716232858
 10
444.3204355193
 20
-236.7017056947
 10
446.216507647
 20
-237.7968177897
 10
448.3917993534
 20
-239.0531365911
 10
450.8386754735
 20
-240.4662418433
 10
453.548543977
 20
-242.0311707727
 10
456.5118757249
 20
-243.7424249368
 10
459.718265714
 20
-245.5939896186
 10
463.1564554674
 20
-247.5793574034
 10
466.8143699129
 20
-249.6915738128
 10
470.6791516277
 20
-251.923211449
 10
474.737237229
 20
-254.266423231
 10
478.9743626427
 20
-256.712988024
 10
483.3756473972
 20
-259.254298475
 10
487.9256341358
 20
-261.8814416216
 10
492.6083386662
 20
-264.5851882479
 10
497.4073105465
 20
-267.3560369919
 10
502.3056963058
 20
-270.1842569323
 10
507.2862894931
 20
-273.059919527
 10
512.3315991663
 20
-275.9729138235
 10
517.4239025756
 20
-278.9130072942
 10
522.5453057496
 20
-281.8698929851
 10
527.6778251549
 20
-284.8331514912
 10
532.8034351112
 20
-287.7924000047
 10
537.9041204749
 20
-290.7372375605
 10
542.9619846406
 20
-293.6573134767
 10
547.9592416382
 20
-296.5423775392
 10
552.878350476
 20
-299.3823028174
 10
557.702026995
 20
-302.167086417
 10
562.4133294792
 20
-304.8869901644
 10
566.9957106807
 20
-307.532424633
 10
571.4330751132
 20
-310.0940978078
 10
575.7098330525
 20
-312.5630462607
  0
ENDSEC
  0
SECTION
  2
OBJECTS
  0
DICTIONARY
  5
C
330
0
100
AcDbDictionary
281
     1
  3
ACAD_GROUP
350
D
  3
ACAD_LAYOUT
350
1A
  3
ACAD_MLINESTYLE
350
17
  3
ACAD_PLOTSETTINGS
350
19
  3
ACAD_PLOTSTYLENAME
350
E
  3
ACAD_SCALELIST
350
47
  0
DICTIONARY
  5
D
102
{ACAD_REACTORS
330
C
102
}
330
C
100
AcDbDictionary
281
     1
  0
DICTIONARY
  5
1A
102
{ACAD_REACTORS
330
C
102
}
330
C
100
AcDbDictionary
281
     1
  3
Layout1
350
1E
  3
Layout2
350
26
  3
Model
350
22
  0
DICTIONARY
  5
17
102
{ACAD_REACTORS
330
C
102
}
330
C
100
AcDbDictionary
281
     1
  3
Standard
350
18
  0
DICTIONARY
  5
19
102
{ACAD_REACTORS
330
C
102
}
330
C
100
AcDbDictionary
281
     1
  0
ACDBDICTIONARYWDFLT
  5
E
102
{ACAD_REACTORS
330
C
102
}
330
C
100
AcDbDictionary
281
     1
  3
Normal
350
F
100
AcDbDictionaryWithDefault
340
F
  0
DICTIONARY
  5
47
102
{ACAD_REACTORS
330
C
102
}
330
C
100
AcDbDictionary
281
     1
  3
A0
350
48
  3
A1
350
49
  3
A2
350
4A
  3
A3
350
4B
  3
A4
350
4C
  3
A5
350
4D
  3
A6
350
4E
  3
A7
350
4F
  3
A8
350
50
  3
A9
350
51
  3
B0
350
52
  3
B1
350
53
  3
B2
350
54
  3
B3
350
55
  3
B4
350
56
  3
B5
350
57
  3
B6
350
58
  3
B7
350
59
  3
B8
350
5A
  3
B9
350
5B
  3
C0
350
5C
  3
C1
350
5D
  3
C2
350
5E
  3
C3
350
5F
  3
C4
350
60
  3
C5
350
61
  3
C6
350
62
  3
C7
350
63
  3
C8
350
64
  3
C9
350
65
  3
D0
350
66
  3
D1
350
67
  3
D2
350
68
  0
LAYOUT
  5
1E
102
{ACAD_REACTORS
330
1A
102
}
330
1A
100
AcDbPlotSettings
  1

  2
none_device
  4

  6

 40
0.0
 41
0.0
 42
0.0
 43
0.0
 44
0.0
 45
0.0
 46
0.0
 47
0.0
 48
0.0
 49
0.0
140
0.0
141
0.0
142
1.0
143
1.0
 70
   688
 72
     1
 73
     0
 74
     5
  7

 75
    16
147
1.0
148
0.0
149
0.0
100
AcDbLayout
  1
Layout1
 70
     1
 71
     1
 10
0.0
 20
0.0
 11
420.0
 21
297.0
 12
0.0
 22
0.0
 32
0.0
 14
1.0000000000E+20
 24
1.0000000000E+20
 34
1.0000000000E+20
 15
-1.0000000000E+20
 25
-1.0000000000E+20
 35
-1.0000000000E+20
146
0.0
 13
0.0
 23
0.0
 33
0.0
 16
1.0
 26
0.0
 36
0.0
 17
0.0
 27
1.0
 37
0.0
 76
     0
330
1B
  0
LAYOUT
  5
26
102
{ACAD_REACTORS
330
1A
102
}
330
1A
100
AcDbPlotSettings
  1

  2
none_device
  4

  6

 40
0.0
 41
0.0
 42
0.0
 43
0.0
 44
0.0
 45
0.0
 46
0.0
 47
0.0
 48
0.0
 49
0.0
140
0.0
141
0.0
142
1.0
143
1.0
 70
   688
 72
     1
 73
     0
 74
     5
  7

 75
    16
147
1.0
148
0.0
149
0.0
100
AcDbLayout
  1
Layout2
 70
     1
 71
     2
 10
0.0
 20
0.0
 11
0.0
 21
0.0
 12
0.0
 22
0.0
 32
0.0
 14
0.0
 24
0.0
 34
0.0
 15
0.0
 25
0.0
 35
0.0
146
0.0
 13
0.0
 23
0.0
 33
0.0
 16
1.0
 26
0.0
 36
0.0
 17
0.0
 27
1.0
 37
0.0
 76
     0
330
23
  0
LAYOUT
  5
22
102
{ACAD_REACTORS
330
1A
102
}
330
1A
100
AcDbPlotSettings
  1

  2
none_device
  4
Letter_(8.50_x_11.00_Inches)
  6

 40
6.35
 41
6.35
 42
6.35000508
 43
6.35000508
 44
215.9
 45
279.4
 46
0.0
 47
0.0
 48
0.0
 49
0.0
140
0.0
141
0.0
142
1.0
143
1.0
 70
  1712
 72
     1
 73
     0
 74
     0
  7

 75
     0
147
1.0
148
0.0
149
0.0
100
AcDbLayout
  1
Model
 70
     1
 71
     0
 10
0.0
 20
0.0
 11
279.4
 21
215.9
 12
0.0
 22
0.0
 32
0.0
 14
0.0
 24
0.0
 34
0.0
 15
279.4
 25
215.9
 35
0.0
146
0.0
 13
0.0
 23
0.0
 33
0.0
 16
1.0
 26
0.0
 36
0.0
 17
0.0
 27
1.0
 37
0.0
 76
     0
330
1F
331
29
  0
MLINESTYLE
  5
18
102
{ACAD_REACTORS
330
17
102
}
330
17
100
AcDbMlineStyle
  2
Standard
 70
     0
  3

 62
   256
 51
90.0
 52
90.0
 71
     2
 49
0.5
 62
   256
  6
BYLAYER
 49
-0.5
 62
   256
  6
BYLAYER
  0
ACDBPLACEHOLDER
  5
F
102
{ACAD_REACTORS
330
E
102
}
330
E
  0
SCALE
  5
48
102
{ACAD_REACTORS
330
47
102
}
330
47
100
AcDbScale
 70
     0
300
1:1
140
1.0
141
1.0
290
     1
  0
SCALE
  5
49
102
{ACAD_REACTORS
330
47
102
}
330
47
100
AcDbScale
 70
     0
300
1:2
140
1.0
141
2.0
290
     0
  0
SCALE
  5
4A
102
{ACAD_REACTORS
330
47
102
}
330
47
100
AcDbScale
 70
     0
300
1:4
140
1.0
141
4.0
290
     0
  0
SCALE
  5
4B
102
{ACAD_REACTORS
330
47
102
}
330
47
100
AcDbScale
 70
     0
300
1:5
140
1.0
141
5.0
290
     0
  0
SCALE
  5
4C
102
{ACAD_REACTORS
330
47
102
}
330
47
100
AcDbScale
 70
     0
300
1:8
140
1.0
141
8.0
290
     0
  0
SCALE
  5
4D
102
{ACAD_REACTORS
330
47
102
}
330
47
100
AcDbScale
 70
     0
300
1:10
140
1.0
141
10.0
290
     0
  0
SCALE
  5
4E
102
{ACAD_REACTORS
330
47
102
}
330
47
100
AcDbScale
 70
     0
300
1:16
140
1.0
141
16.0
290
     0
  0
SCALE
  5
4F
102
{ACAD_REACTORS
330
47
102
}
330
47
100
AcDbScale
 70
     0
300
1:20
140
1.0
141
20.0
290
     0
  0
SCALE
  5
50
102
{ACAD_REACTORS
330
47
102
}
330
47
100
AcDbScale
 70
     0
300
1:30
140
1.0
141
30.0
290
     0
  0
SCALE
  5
51
102
{ACAD_REACTORS
330
47
102
}
330
47
100
AcDbScale
 70
     0
300
1:40
140
1.0
141
40.0
290
     0
  0
SCALE
  5
52
102
{ACAD_REACTORS
330
47
102
}
330
47
100
AcDbScale
 70
     0
300
1:50
140
1.0
141
50.0
290
     0
  0
SCALE
  5
53
102
{ACAD_REACTORS
330
47
102
}
330
47
100
AcDbScale
 70
     0
300
1:100
140
1.0
141
100.0
290
     0
  0
SCALE
  5
54
102
{ACAD_REACTORS
330
47
102
}
330
47
100
AcDbScale
 70
     0
300
2:1
140
2.0
141
1.0
290
     0
  0
SCALE
  5
55
102
{ACAD_REACTORS
330
47
102
}
330
47
100
AcDbScale
 70
     0
300
4:1
140
4.0
141
1.0
290
     0
  0
SCALE
  5
56
102
{ACAD_REACTORS
330
47
102
}
330
47
100
AcDbScale
 70
     0
300
8:1
140
8.0
141
1.0
290
     0
  0
SCALE
  5
57
102
{ACAD_REACTORS
330
47
102
}
330
47
100
AcDbScale
 70
     0
300
10:1
140
10.0
141
1.0
290
     0
  0
SCALE
  5
58
102
{ACAD_REACTORS
330
47
102
}
330
47
100
AcDbScale
 70
     0
300
100:1
140
100.0
141
1.0
290
     0
  0
SCALE
  5
59
102
{ACAD_REACTORS
330
47
102
}
330
47
100
AcDbScale
 70
     0
300
1/128" = 1'-0"
140
0.0078125
141
12.0
290
     0
  0
SCALE
  5
5A
102
{ACAD_REACTORS
330
47
102
}
330
47
100
AcDbScale
 70
     0
300
1/64" = 1'-0"
140
0.015625
141
12.0
290
     0
  0
SCALE
  5
5B
102
{ACAD_REACTORS
330
47
102
}
330
47
100
AcDbScale
 70
     0
300
1/32" = 1'-0"
140
0.03125
141
12.0
290
     0
  0
SCALE
  5
5C
102
{ACAD_REACTORS
330
47
102
}
330
47
100
AcDbScale
 70
     0
300
1/16" = 1'-0"
140
0.0625
141
12.0
290
     0
  0
SCALE
  5
5D
102
{ACAD_REACTORS
330
47
102
}
330
47
100
AcDbScale
 70
     0
300
3/32" = 1'-0"
140
0.09375
141
12.0
290
     0
  0
SCALE
  5
5E
102
{ACAD_REACTORS
330
47
102
}
330
47
100
AcDbScale
 70
     0
300
1/8" = 1'-0"
140
0.125
141
12.0
290
     0
  0
SCALE
  5
5F
102
{ACAD_REACTORS
330
47
102
}
330
47
100
AcDbScale
 70
     0
300
3/16" = 1'-0"
140
0.1875
141
12.0
290
     0
  0
SCALE
  5
60
102
{ACAD_REACTORS
330
47
102
}
330
47
100
AcDbScale
 70
     0
300
1/4" = 1'-0"
140
0.25
141
12.0
290
     0
  0
SCALE
  5
61
102
{ACAD_REACTORS
330
47
102
}
330
47
100
AcDbScale
 70
     0
300
3/8" = 1'-0"
140
0.375
141
12.0
290
     0
  0
SCALE
  5
62
102
{ACAD_REACTORS
330
47
102
}
330
47
100
AcDbScale
 70
     0
300
1/2" = 1'-0"
140
0.5
141
12.0
290
     0
  0
SCALE
  5
63
102
{ACAD_REACTORS
330
47
102
}
330
47
100
AcDbScale
 70
     0
300
3/4" = 1'-0"
140
0.75
141
12.0
290
     0
  0
SCALE
  5
64
102
{ACAD_REACTORS
330
47
102
}
330
47
100
AcDbScale
 70
     0
300
1" = 1'-0"
140
1.0
141
12.0
290
     0
  0
SCALE
  5
65
102
{ACAD_REACTORS
330
47
102
}
330
47
100
AcDbScale
 70
     0
300
1-1/2" = 1'-0"
140
1.5
141
12.0
290
     0
  0
SCALE
  5
66
102
{ACAD_REACTORS
330
47
102
}
330
47
100
AcDbScale
 70
     0
300
3" = 1'-0"
140
3.0
141
12.0
290
     0
  0
SCALE
  5
67
102
{ACAD_REACTORS
330
47
102
}
330
47
100
AcDbScale
 70
     0
300
6" = 1'-0"
140
6.0
141
12.0
290
     0
  0
SCALE
  5
68
102
{ACAD_REACTORS
330
47
102
}
330
47
100
AcDbScale
 70
     0
300
1'-0" = 1'-0"
140
12.0
141
12.0
290
     0
  0
ENDSEC
  0
EOF
